Oops, an error
Loading. Please wait.

Breakfast In America Bass Tab

version 1
version 1

Whole song

Interactive

9,462 views 33 this week
3 commentsread comments
1 2 3 4 5
excellent!
x 11
add to favorites
launch autoscroll
font size
0
reset
guitar tuner
Tab Pro tools
  • play this tab
  • loop segment
  • change instrument
  • show fretboard
  • metronome
×
Best way to learn
"Breakfast In America"
Autoscroll
slow
fast
+/-
esc
set tempo
stop
Contributor
Artist: Supertramp
Title: Breakfast In America
Album: Breakfast In America
Tuning: Standard (EADG)


Verse 1
G|-----------------------------|----------------------------|
D|----------------------6--6-8-|-----------------------6--6-|
A|--3--3--------------6--------|--3--3--------------6-------|
E|--------6--6--4--4-----------|---------6--6--4--4---------|

G|------------------------------------------------------------|
D|--5------5------10-----10-----5------5----------------------|
A|---5------5------10-----10-----5------5----------1~---------|
E|------3------3------8------8------3------3--1~--------1/6~--|

Verse 2
G|-----------------------------|--------------------------------|
D|----------------------6--6-8-|----------------------6-5-3-----|
A|--3--3--------------6--------|--3--3-----------------------6--|
E|--------6--6--4--4-----------|---------6--6--4--4-------------|

G|------------------------------------------------------------|
D|--5------5------10-----10-----5------5----------------------|
A|---5------5------10-----10-----5------5----------1~---------|
E|------3------3------8------8------3------3--1~--------1/6~--|

Bridge
G|--------------------------------------------------------------------------|
D|--5------5------10-----10-----5------5------10-----10---------------------|
A|---5------5------10-----10-----5------5------10-----10--------------------|
E|------3------3------8------8------3------3------8------8-6-4~----43-1/6~--|

Verse 3
G|-----------------------------|--------------------------------|
D|----------------------6--6-8-|----------------------6-5-3-----|
A|--3--3--------------6--------|--3--3-----------------------6--|
E|--------6--6--4--4-----------|---------6--6--4--4-------------|

G|------------------------------------------------------------|
D|--5------5------10-----10-----5------5----------------------|
A|---5------5------10-----10-----5------5----------1~---------|
E|------3------3------8------8------3------3--1~--------1/6~--|

Outro
G|------------------------------------------------------------|
D|--5------5------10-----10-----5------5------10-----10-------|
A|---5------5------10-----10-----5------5------10-----10--79--|
E|------3------3------8------8------3------3------8------8----|

G|--------------------------------------------------------------------------|
D|--5------5------10-----10-----5------5------10-----10---------------------|
A|---5------5------10-----10-----5------5------10-----10--------------------|
E|------3------3------8------8------3------3------8------8-6-4~----43-1/6~--|


Corrections/Comments/Suggestions welcome. jbschlosser@gmail.com
comments
print report bad tab
3 comments total.
+1 reply
Omadawn wrote on March 27 2010, 10:16 am

awesome tab, gotta say though it does sound better on a trombone... =D

0 reply
B.C.RichRulz wrote on October 4 2013, 12:35 pm

thank you, great tab!

0 reply
Denway wrote on November 23 2013, 07:38 pm

Excellent! Thanks so much!!!

I want to post or [tab]
guest
You may want to rate the tab now too:
select rating
Please do not post tabs as comments. Select "correction" instead!