Oops, an error
Loading. Please wait.

Cest Le Bon tab

49 views 1 this week
no commentswrite comment
1 2 3 4 5
2 more votes to show rating
add to favorites
×
Save as Personal and add changes to this tab that will be seen only by you. Learn more ›
×
You can save this tab as Personal to edit and correct it or add notes. All changes will be seen only by you. Learn more »
launch autoscroll
font size
0
reset
how to read this tab
guitar tuner
edit
Autoscroll
slow
fast
+/-
esc
set tempo
stop
About this tab version
Lays out confusing first part and then gives chords for easier sections. Was this info helpful? Yes No
Hit the open G string a lot between chords for effect.

[Intro]
e|-10---12--7--|--10---12--7--|--8---8---|------7-5--3--|--3---5---|--3--3---|
B|-7----8---3--|--7----8---3--|--5---4---|----3---------|--2-------|--1--1---|
G|-0----0---0--|--0----0---0--|--0---0---|--0-----------|--0-------|--0--0---|
D|-------------|--------------|----------|--------------|----------|---------|
A|-------------|--------------|----------|--------------|----------|---------|
E|-------------|--------------|----------|--------------|----------|---------|

[Verse 2]
e|-10--10-10--7-8-|-10--10-10---8-7---|-8---8--8---5-7-|-8---8--8---7-5------|
B|-7---7--7-------|-6---6--6----------|-5---5--5-------|-4---4--4------------|
G|-0---0--0-------|-0---0--0----------|-0---0--0-------|-0---0--0------------|
D|----------------|-------------------|----------------|---------------------|
A|----------------|-------------------|----------------|---------------------|
E|----------------|-------------------|----------------|---------------------|
  "I never...      "man was supp..     "I never     "re-sponsibility...

[Verse B]
e|-7---7--7---5-3-|-3-------3-----5---|-3------3----5--|-3------3------------|
B|-3---3--3-------|-2-------2-----2---|-1------1----1--|-0------0------------|
G|-0---0--0-------|-0-------0-----0---|-0------0----0--|-0------0------------|
D|----------------|-------------------|----------------|--------------0------|
A|----------------|-------------------|----------------|---------------------|
E|----------------|-------------------|----------------|---------------------|
  "All that...     "mu-sic...          "coming...       "me...

[Pre-Chorus]
 Am            Am/B  Am/C    D7sus4  D7
Lovers, youre needed in the garden
Am                                 Am/B    Am/C   D7sus4            D7
Well theres a lot of crazy people whove forgotten where their heart is
          F          Fmaj7       C              G                Am
And they dont give a damn about hurting those flowers and those trees

[Chorus]
 C       D    C      Em
Cest le bon, sailing on and on  (x4)
   Cmaj7
and on...

Song Structure:
[Intro]

[Verse A] x2
[Verse B] x2
[Verse A] x2
[Verse B] x4

[Prechorus]
[Chorus]

[Verse A] x4 (saxophone solo)

[Verse A] x2
[Verse B] x4


[Prechorus]
[Chorus]  x2

[Outro] (same as intro)

            
            
Suggest correction
Creating personal tab
Creating personal tab
You can edit any tab online and save it as your Personal.

You can edit, replace or remove any tab part or add personal notes – all changes will be seen only by you.

Personal tabs can be accessed anytime from any device, even offline.
Learn more »
Give kudos to tab author, rate the tab!
1 2 3 4 5
comments
print report bad tab
guest
You may want to rate the tab now too:
select rating
Wanna post a correction for this tab? Suggest correction