Oops, an error
Loading. Please wait.

Crime Of The Century bass

version 1
version 1

Whole song

Interactive

286 views 9 this week
no commentswrite comment
1 2 3 4 5
x 5
add to favorites
×
Save as Personal and add changes to this tab that will be seen only by you. Learn more ›
×
You can save this tab as Personal to edit and correct it or add notes. All changes will be seen only by you. Learn more »
launch autoscroll
font size
0
reset
guitar tuner
edit
Autoscroll
slow
fast
+/-
esc
set tempo
stop
Author
Difficulty
-----------------------------------------------------------------------------
                                          Artist - Supertramp 
                                         *********************
                                       Song - Crime Of The Century    
                                      *****************************
                                   Album - Crime Of The Century (1974)  
                                  *************************************
                                         Tabbed By - Ayreon77
                                        **********************
-----------------------------------------------------------------------------
Tuning = Standard


00:33
  So roll up and see
G|-------------------------------|---------------|------------|
D|-------------------------------|---------------|-------7----|
A|--------------------5----------|----5----------|----7-----7-|
E|-----------------5-----7--8--7-|-5-----7--8--7-|-5----------|


------------------
00:52
VERSE 2
********
     Who are these men of lust, greed, and glory
G|----------------------------------------------|
D|--------------------------7-------------------|
A|-5----------------------7---------------------|
E|----------------------------------------------|

     Rip off the masks and let's see
G|-5----------------------------------------|
D|---------------5--------------------------|
A|-----------------------------------8------|
E|------------------------------------------|

     But that's no right - oh no, whats the story
G|--------------------------------------------------------|
D|--------------------------7--------------------7--9--10-|
A|-5--------------------5-7-------------------------------|
E|--------------------------------------------------------|

  But there's you and there's me
G|----------------------------|
D|-9---7---5---------5---7----|
A|--------------------------8-|
E|----------------------------|


------------------
01:23
SOLO
*****
G|--------------|----------|----10---------10~~~-|
D|--------------|-7---5----|-10----10---10-------|
A|-5----------7-|--------8-|---------------------|
E|-----3----7---|----------|---------------------|


G|--------------|----------|----10~~~-|
D|--------------|-7---5----|-10-------|
A|-5----------7-|--------8-|----------|
E|-----3----7---|----------|----------|

01:52           s  s                    s  s                    s  s
G|----------|-12\14/12--10-----10~~-|-12\14/12--10-----10~~-|-12\14/12--10-----10~~-|
D|-7---5----|---------------10------|---------------10------|---------------10------|
A|--------8-|-----------------------|-----------------------|-----------------------|
E|----------|-----------------------|-----------------------|-----------------------|


------------------
BREAK
******


02:31                03:28 
G|------|------|     G|-------|
D|-5--7-|------|     D|-------|
A|------|-7--8-|     A|-8-7-5-|
E|------|------|X10  E|-------|


03:29                03:50
G|------|------|     G|-----|
D|-5--7-|------|     D|-----|
A|------|-7--8-|     A|-8-7-|
E|------|------|X4   E|-----|


03:51                04:02
G|------|------|     G|-----------|
D|-5--7-|------|     D|-----------|
A|------|-7--8-|     A|-8-7-5-----|
E|------|------|X2   E|-------8-5-|


04:03
G|------|------|    
D|-5--7-|------|    
A|------|-7--8-|     
E|------|------|X14  Fade Out...........



ENJOY.........
Suggest correction
Creating personal tab
Creating personal tab
You can edit any tab online and save it as your Personal.

You can edit, replace or remove any tab part or add personal notes – all changes will be seen only by you.

Personal tabs can be accessed anytime from any device, even offline.
Learn more »
comments
print report bad tab
guest
You may want to rate the tab now too:
select rating
Wanna post a correction for this tab? Suggest correction