Oops, an error
Loading. Please wait.

Crime Of The Century Tab

version 1
version 1

Solo

Whole song

Interactive

7,730 views 1 this week
1 commentread comment
1 2 3 4 5
excellent!
x 3
add to favorites
launch autoscroll
font size
0
reset
how to read this tab
guitar tuner
Tab Pro tools
  • play this tab
  • loop segment
  • change instrument
  • show fretboard
  • metronome
Autoscroll
slow
fast
+/-
esc
set tempo
stop
Contributor
Crime of the Century – Supertramp

tabbed by chinups75

this song is mostly piano, but with a pretty cool guitar solo.
the third line has 2 guitars layered, but i only tabbed the higher part.
enjoy this sweet song!

Solo:
e|--crescendo--17-------------7b8----7--5----5---------|
B|----------------------8s10---------------8---8-7-----|
G|-----------------------------------------------------|
D|-----------------5h7---------------------------------|
A|-----------------------------------------------------|
E|-----------------------------------------------------|

e|-----------------------------------------------------|
B|-------10--------------------------------------------|
G|--7h9-----9------------------------------------------|
D|------------9s12-------------------------------------|
A|-----------------------------------------------------|
E|-----------------------------------------------------|

e|--10-10-10----10s8-10s12-15----12--20-----19-----17--|
B|---------------------------------------17-----17-----|
G|-----------------------------------------------------|
D|-----------------------------------------------------|
A|-----------------------------------------------------|
E|-----------------------------------------------------|

e|--19-17-19-20-----19-----17--------------------------|
B|---------------17-----17-----------------------------|
G|-----------------------------------------------------|
D|-----------------------------------------------------|
A|-----------------------------------------------------|
E|-----------------------------------------------------|

e|--15b17b15--12---------------------------------------|
B|----------------15hold----s10-12-13----13b15b13--12--|
G|-----------------------------------------------------|
D|-----------------------------------------------------|
A|-----------------------------------------------------|
E|-----------------------------------------------------|
comments
We did not receive enough feedback on this tab! Please rate:
print report bad tab
1 2 3 4 5
1 comment total.
0 reply
TrentonD wrote on January 5 2007, 12:30 am

Great tab, but there is one thing that I can see (hear) is missing.

Instead of:
e|--crescendo--17-------------7b8----7--5----5---------|
B|----------------------8s10---------------8---8-7-----|
G|-----------------------------------------------------|
D|-----------------5h7---------------------------------|
A|-----------------------------------------------------|
E|-----------------------------------------------------|

I think it should be:
e|--crescendo--17-------------7b8----7--5----5---------|
B|----------------------8s10---------------8---8-7h9---|
G|-----------------------------------------------------|
D|-----------------5h7---------------------------------|
A|-----------------------------------------------------|
E|-----------------------------------------------------|

Very small detail, but the last 7 on the B string should have a hammer on to a 9, IMO.

I want to post or [tab]
guest
You may want to rate the tab now too:
select rating
Please do not post tabs as comments. Select "correction" instead!