Oops, an error
Loading. Please wait.

Crisis What Crisis 1975 album bass

13 views 1 this week
no commentswrite comment
1 2 3 4 5
3 more votes to show rating
add to favorites
×
Save as Personal and add changes to this tab that will be seen only by you. Learn more ›
×
You can save this tab as Personal to edit and correct it or add notes. All changes will be seen only by you. Learn more »
launch autoscroll
font size
0
reset
guitar tuner
edit
Autoscroll
slow
fast
+/-
esc
set tempo
stop
                            Artist - Supertramp
                           *********************
                            Song - Easy Does It
                           *********************
                    Album -  Crisis What Crisis ? (1975)
                   **************************************
                           Tabbed By - Ayreon77
                          **********************
-------------------------------------------------------------------
Tuning = Standard             



00:37
VERSE 1
********
G|----------|---------|---------|------|------------|------------|
D|----------|---------|---------|------|------------|------------|
A|-5-~~-5-5-|-5~~-5-5-|-5~~-5-5-|-5--5-|-7--7-------|-7--7-------|
E|----------|---------|---------|------|-------5--5-|-------5--5-|


G|----------|---------|---------|---------|------------|------------|
D|----------|---------|---------|---------|------------|------------|
A|-5-~~-5-5-|-5~~-5-5-|-5~~-5-5-|-5~~-5-5-|-7--7-------|-7--7-------|
E|----------|---------|---------|---------|-------5--5-|-------5--5-|

01:02
G|-------------------|-------------------|----9-10-11--12-13-14~~~~~-|
D|------s--7----s--7-|------s--7----s--7-|-12------------------------|
A|-5~~-7\9---5-7\9---|-5~~-7\9---5-7\9---|---------------------------|
E|-------------------|-------------------|---------------------------|

01:14
G|-----4-7-6------4-|-----4-7-6------4-|-----------------------|
D|---5----------7---|---5----------7---|-------------9~~--11~~-|
A|-7----------------|-7----------------|-7~~---7~~-9-----------|
E|------------------|------------------|-----7-----------------|


-------------------------
01:28
INTRLUDE
*********
G|----------|---------|---------|------|------------|------------|
D|----------|---------|---------|------|------------|------------|
A|-5-~~-5-5-|-5~~-5-5-|-5~~-5-5-|-5--5-|-7--7-------|-7--7-------|
E|----------|---------|---------|------|-------5--5-|-------5--5-|


G|----------|---------|---------|------|------------|------------|
D|----------|---------|---------|------|------------|------------|
A|-5-~~-5-5-|-5~~-5-5-|-5~~-5-5-|-5--5-|-7--7-------|-7--7-------|
E|----------|---------|---------|------|-------5--5-|-------5--5-|

01:53
G|-------------------|-------------------|----9-10-11--12-13-14~~~~~-|
D|------s--7----s--7-|------s--7----s--7-|-12------------------------|
A|-5~~-7\9---5-7\9---|-5~~-7\9---5-7\9---|---------------------------|
E|-------------------|-------------------|---------------------------|

02:04
G|-----4-7-6------4-|-----4-7-6------4-|----------------------|
D|---5----------7---|---5----------7---|-------------9~~--7~~-|
A|-7----------------|-7----------------|-7~~---7~~-9----------|
E|------------------|------------------|-----7----------------|



ENJOY...............



-------------------------------------------------------------------
                            Artist - Supertramp
                           *********************
                          Song - Sister Moonshine
                         *************************
                    Album -  Crisis What Crisis ? (1975)
                   **************************************
                           Tabbed By - Ayreon77
                          **********************
-------------------------------------------------------------------
Tuning = Standard             


00:49
VERSE 2
********
G|------------|------------|------------|------------|
D|--h----7--7-|--h----7--7-|--h----7--7-|----------7-|
A|-5-7--------|-5-7--------|-5-7--------|-4-5-7--7---|
E|-----5------|-----5------|-----5------|------------|

00:59
G|------------|------------|------------|------------|------------|------------|-------|
D|--h----7--7-|--h----7--7-|--h----7--7-|----------7-|------------|----------7-|-9-~~~-|
A|-5-7--------|-5-7--------|-5-7--------|-4-5-7--7---|-4-5-7--7---|-4-5-7--7---|-------|
E|-----5------|-----5------|-----5------|------------|----------5-|------------|-------|


-----------------------
CHORUS - No Bass
*******

-----------------------
01:31
BRIDGE
*******
G|--------------------------|--------------------------|
D|-----------3----------3~~-|-----------3----------3~~-|
A|--h----h-----3------3-----|--h----h-----3------3-----|
E|-0-2--0-2------2--0-------|-0-2--0-2------2--0-------|


G|--------------|------------------------|--------s-------s---9-|
D|--------------|------------------------|--s--7-7\9--9--9\11---|
A|--h-----------|--h-----------0---------|-7\9------------------|
E|-1-3--3--3--3-|-1-3--3--3--3---7~~-7~~-|----------------------|


-----------------------
01:51
SOLO
*****
G|-------------|-------------|-------------|-------------|
D|-7-7-77-7777-|-7-7-77-7777-|-7-7-77-7777-|------7-7777-|
A|-------------|-------------|-------------|-7--7--------|
E|-------------|-------------|-------------|-------------|


G|-------------|-------------|-------------|-------------|
D|-7-7-77-7777-|-7-7-77-7777-|-7-7-77-7777-|------7-7777-|
A|-------------|-------------|-------------|-7--7--------|
E|-------------|-------------|-------------|-------------|

02:09
G|-------------|-------------|-------------|
D|------7-7777-|------7-7777-|------7-7777-|
A|-7--7--------|-7--7--------|-7--7--------|
E|-------------|-------------|-------------|


-----------------------
02:15
VERSE 3
********
G|------------|------------|------------|------------|
D|--h----7--7-|--h----7--7-|--h----7--7-|----------7-|
A|-5-7--------|-5-7--------|-5-7--------|-4-5-7--7---|
E|-----5------|-----5------|-----5------|------------|

02:25
G|------------|------------|------------|------------|------------|------------|-------|
D|--h----7--7-|--h----7--7-|--h----7--7-|----------7-|------------|----------7-|-9-~~~-|
A|-5-7--------|-5-7--------|-5-7--------|-4-5-7--7---|-4-5-7--7---|-4-5-7--7---|-------|
E|-----5------|-----5------|-----5------|------------|----------5-|------------|-------|


-----------------------
02:39
CHORUS 
*******
  02:47
G|----------|
D|--s-------|
A|-2\14~~~~-|
E|----------|


-----------------------
02:57
BRIDGE
*******
G|--------------------------|--------------------------|
D|-----------3----------3~~-|-----------3----------3~~-|
A|--h----h-----3------3-----|--h----h-----3------3-----|
E|-0-2--0-2------2--0-------|-0-2--0-2------2--0-------|

03:07
G|--------------|------------------------|--------s-------s---9-|
D|--------------|------------------------|--s--7-7\9--9--9\11---|
A|--h-----------|--h-----------0---------|-7\9------------------|
E|-1-3--3--3--3-|-1-3--3--3--3---7~~-7~~-|----------------------|


-----------------------
03:16
SOLO
*****
G|-------------|-------------|-------------|-------------|
D|-7-7-77-7777-|-7-7-77-7777-|-7-7-77-7777-|------7-7777-|
A|-------------|-------------|-------------|-7--7--------|
E|-------------|-------------|-------------|-------------|


G|-------------|-------------|-------------|-------------|
D|-7-7-77-7777-|-7-7-77-7777-|-7-7-77-7777-|------7-7777-|
A|-------------|-------------|-------------|-7--7--------|
E|-------------|-------------|-------------|-------------|

03:34
G|--------|--------|--------|------------|------------|------------|------------|
D|--------|------7-|--------|----------7-|------------|----------7-|------------|
A|-7--7---|-7--7---|-7--7---|-4-5-7--7---|-4-5-7--7---|-4-5-7--7---|-4-5-7--7---|
E|------5-|--------|------5-|------------|----------5-|------------|----------5-|


-----------------------
03:49
WHISTLE                04:17
********               Play This too the end and fade out....................
G|----------------|    |------------------|
D|----------------|    |-----s------------|
A|-0--0--0--0-0---|    |-0--5\7--0--0-0---|
E|--------------3-|X12 |----------------3-|


ENJOY..........



-------------------------------------------------------------------
                            Artist - Supertramp
                           *********************
                        Song - Ain't Nobody But Me
                       ****************************
                    Album -  Crisis What Crisis ? (1975)
                   **************************************
                           Tabbed By - Ayreon77
                          **********************
-------------------------------------------------------------------
Tuning = Standard             



00:09
INTRO
******
G|------------------------|
D|------------------------|
A|-2~~~-3~~~-4~~~-5~-6~~~-|
E|------------------------|


----------------------------------
00:32
VERSE 1
********
G|-----------------|-----------------|------------------|------------------|
D|---------s-------|---------s-------|----------s-------|----------s-------|
A|---5-6-7-\-----7-|---5-6-7-\-----7-|-7-8-9-10-\-------|-7-8-9-10-\-------|
E|-7----------0----|-7----------0----|-------------3--3-|-------------3--3-|


G|---------s-------|---------s-------|---------------------------|
D|---6-7-8-\-------|---6-7-8-\-------|--s----5-7-5---5-----------|
A|-8---------------|-8---------------|-5\7-7-------7---7---5---5-|
E|------------6--6-|------------6--6-|-------------------7---7---|


G|-----------|-----------------|------------------|------------------|
D|---s-------|---------s-------|----------s-------|----------s-------|
A|-7-\-----7-|---5-6-7-\-----7-|-7-8-9-10-\-------|-7-8-9-10-\-------|
E|------0----|-7----------0----|-------------3--3-|-------------3--3-|


G|---------s-------|-----------s-------|
D|---6-7-8-\-------|--s--6-7-8-\-------|
A|-8---------------|-6\8---------------|
E|------------6--6-|--------------6--6-|


----------------------------------
01:18
CHORUS
*******
G|------------------------------------------------------------|
D|-8-9-10-11---11-11----11-11---------------------------------|
A|-----------------------------------8--9--9-9--9-9-----------|
E|-----------9-------9--------9--11-----------------9--9-9--9-|

01:32
G|---------s------------------------------------------------------|
D|--------9\11-11--11------11-------------------------------------|
A|------8---------------11----------8--9-9--9-9-9--9-9------------|
E|-9-11----------9----9-------9--11--------------------9-9--9-9-9-|


G|---------------------------------|
D|---------------------------------|
A|------8-9-9--9------0-2-3-4--4-4-|
E|-9-11----------2--2--------------|


----------------------------------
01:53
SAX
****
G|-------------------|-----------------|------------------|------------------|
D|-----------s-------|---------s-------|----------s-------|----------s-------|
A|--s--5-6-7-\-----7-|---5-6-7-\-----7-|-7-8-9-10-\-------|-7-8-9-10-\-------|
E|-5\7----------0----|-7----------0----|-------------3--3-|-------------3--3-|


G|---------s-------|---------s-------|
D|---6-7-8-\-------|---6-7-8-\-------|
A|-8---------------|-8---------------|
E|------------6--6-|------------6--6-|


G|----------------------------|-------------------|------------------|---------------------------|
D|----8-9-10--------10--------|-------------------|-------10---------|---------------------------|
A|-10------------10-----------|-10--------10-12---|-10-12----12-10---|-10-12----10-12----10-12---|
E|-----------8-8--------8-8-8-|----8--8-8-------8-|----------------8-|-------8--------8--------8-|


----------------------------------
02:28
VERSE 2
********
G|-------------------|-----------------|------------------|------------------|
D|-----------s-------|---------s-------|----------s-------|----------s-------|
A|--s--5-6-7-\-----7-|---5-6-7-\-----7-|-7-8-9-10-\-------|-7-8-9-10-\-------|
E|-5\7----------0----|-7----------0----|-------------3--3-|-------------3--3-|


G|---------s-------|---------s-------|
D|---6-7-8-\-------|---6-7-8-\-------|
A|-8---------------|-8---------------|
E|------------6--6-|------------6--6-|


----------------------------------
02:49
CHORUS
*******
G|----------------------------------------------------------------|
D|-8-9-10-11---11-11-------11-------------------------------------|
A|----------------------11-----------8--9-9--9-9-9--9-9-----------|
E|-----------9-------9--------9--11---------------------9--9-9--9-|


G|----------------------------------------------------------------------------|
D|----------------------------------------------------------------------------|
A|------8--------8--9--10--11-11-------------8--8--9-9--9-9-9--9-9------------|
E|-9-11---9--9-9------------------9-9-11--11-----------------------9-9--9-9-9-|

03:18
G|----------------------------------------------------------------------|
D|----------------------------------------------------------------------|
A|------8-9-9--9-9-9--9-9------------------8-9-9--9-9-9--9-9------------|
E|-9-11-------------------9-9--9-9-9--9-11-------------------9-9--9-9-9-|

03:32                                      
G|-----------------------------------|
D|-----------------------------------|
A|------8-9-9--9-9-9--9-9------4-4-4-|
E|-9-11-------------------9-9--------|


03:39   Hush
G|--------------------------------|--------------------------------|
D|-----3-4-4--4-------------------|-----3-4-4--4-------------------|
A|-4-6-------------0-2-3-4-4----4-|-4-6-------------0-2-3-4-4----4-|
E|--------------2-------------4---|--------------2-------------4---|


G|----------------------------------|--------------------------------|
D|-------3-4-4--4-------------------|-----3-4-4--4-------------------|
A|---4-6-------------0-2-3-4-4----4-|-4-6-------------0-2-3-4-4----4-|
E|-4--------------2-------------4---|--------------2-------------4---|


G|-----------------------------|
D|-----3-4-4--4----------------|
A|-4-6-------------0-2-3-4~~~~-|
E|--------------2--------------|



----------------------------------
04:15
SOLO
*****
G|---------------------------|----------|-----------------|-----------------|
D|--s----5-7-5---5-----------|--s-------|---------s-------|---------s-------|
A|-5\7-7-------7---7---5---5-|-7\-----7-|---5-6-7-\-----7-|---5-6-7-\-----7-|
E|-------------------7---7---|-----0----|-5----------0----|-5----------0----|

   Repeat this until the small change at the end at 04:56
G|-----------------|-----------------|-----------------|-----------------|
D|---------s-------|---------s-------|---------s-------|---------s-------|
A|---5-6-7-\-----7-|---5-6-7-\-----7-|---5-6-7-\-----7-|---5-6-7-\-----7-|
E|-5----------0----|-5----------0----|-5----------0----|-5----------0----|

                                Fade Out............................
G|-----------------------------|-----------------|-----------------|
D|-9-9-9-7-5-----------s-------|---------s-------|---------s-------|
A|-----------7---5-6-7-\-----7-|---5-6-7-\-----7-|---5-6-7-\-----7-|
E|-------------7----------0----|-5----------0----|-5----------0----|


ENJOY..........



-------------------------------------------------------------------
                            Artist - Supertramp
                           *********************
                           Song - A Soapbox Opera
                          ************************
                    Album -  Crisis What Crisis ? (1975)
                   **************************************
                           Tabbed By - Ayreon77
                          **********************
-------------------------------------------------------------------
Tuning = Standard             



Bass don't come in untill 00:52


----------------------
00:52
CHORUS
*******
G|----------------------------------------------------------|
D|---------------------------------------------s------------|
A|-5--5-5--5------2--2-2--2-2--2-----------3--3\7--7-7--7-7-|
E|-----------3--3----------------1--1-1--1------------------|

01:05
G|-----------------------------------------------------|
D|-----------------------------------------------s-----|
A|-7-5--5-5--5------2--2-2--2-2--2-----------3--3\7~~~-|
E|-------------3--3----------------1--1-1--1-----------|


----------------------
01:18
BREAK
******
G|-----------|
D|-----------|
A|-5-6-7~~~~-|
E|-----------|


----------------------
01:34
CHORUS
*******
    s 
G|-9\----------------------------------------------------------|
D|------------------------------------------------s------------|
A|----5--5-5--5------2--2-2--2-2--2-----------3--3\7--7-7--7-7-|
E|--------------3--3----------------1--1-1--1------------------|

01:47
G|-----------------------------------------------------|
D|-----------------------------------------------s-----|
A|-7-5--5-5--5------2--2-2--2-2--2-----------3--3\7~~~-|
E|-------------3--3----------------1--1-1--1-----------|


----------------------
01:58
BREAK - Not sure if this is a bass here but here are the notes
******
G|--------------------------------------------------------------|
D|------9-----12---------------12---------------12--------------|
A|-9-10------------14-12-14----------14-12-14------10---s-------|
E|----------------------------------------------------12\--8--7-|


----------------------
02:14
BRIDGE
*******                                     s
G|----------------------------------------10\-12--12-9----------|---------------------|
D|------------------------7-8-9--9-10-12---------------10----12-|---------------------|
A|--------------------------------------------------------10----|-------s---s---3-5-5-|
E|-5--5-5--5-5--5-5--5-3----------------------------------------|-3-3-3-\4-4\-5-------|

02:30
G|--------------------------|--------------------------|
D|--------------------------|--------------------------|
A|-5----------s---s---3-5-5-|-5----------s---s---3-5-5-|
E|---3--3-3-3-\4-4\-5-------|---3--3-3-3-\4-4\-5-------|

02:38
G|--------------12-12--12-12---s-|--------------12-12--12-12---s-|
D|---------------------------12\-|---------------------------12\-|
A|-6~~-8~~-10~~------------------|-6~~-8~~-10~~------------------|
E|-------------------------------|-------------------------------|


G|------------------------|
D|------------------------|
A|-6--8--6--8--6--8-10~~~-|
E|------------------------|


----------------------
03:41
CHORUS
*******
    s 
G|-9\----------------------------------------------------------|
D|------------------------------------------------s------------|
A|----5--5-5--5------2--2-2--2-2--2-----------3--3\7--7-7--7-7-|
E|--------------3--3----------------1--1-1--1------------------|


G|------------------------------------------------------------|
D|-----------------------------------------------s------------|
A|-7-5--5-5--5------2--2-2--2-2--2-----------3--3\7--7-7--7-7-|
E|-------------3--3----------------1--1-1--1------------------|


G|------------------------------------------------------------|
D|-----------------------------------------------s------------|
A|-7-5--5-5--5------2--2-2--2-2--2-----------3--3\7--7-7--7-7-|
E|-------------3--3----------------1--1-1--1------------------|

04:18
G|--------------------------------------------------------------------|
D|-----------------------------------------------s--------------------|
A|-7-5--5-5--5------2--2-2--2-2--2-----------3--3\7~~~-6~~~-5~~~-4~~~-|
E|-------------3--3----------------1--1-1--1--------------------------|


ENJOY............



-------------------------------------------------------------------
                            Artist - Supertramp
                           *********************
                        Song - Another Man's Woman
                       ****************************
                    Album -  Crisis What Crisis ? (1975)
                   **************************************
                           Tabbed By - Ayreon77
                          **********************
-------------------------------------------------------------------
Tuning = Standard             



00:43
VERSE 1
********
G|-----------|--------------------|--------------------|--------------------|----------------|
D|-----------|--------------------|--------------------|--------------------|--------------s-|
A|-------2-3-|-3-3--3-3--3-3--2-3-|-3-3--3-3--3-3--2-3-|-3-3--3-3--3-3--2-3-|-3-3--3-3--3-3\-|
E|-3-3-3-----|--------------------|--------------------|--------------------|----------------|


-------------------------------------
00:53
PRE CHORUS
***********
G|----------------s---------------s-s-----------|
D|--------------12\--------------7\9/7----------|
A|------------------5~~~~~~~-----------9-5~~~~~-|
E|-1~~~~~~--------------------------------------|


-------------------------------------
01:14
CHORUS
*******
G|---s------------------|----------------------------------------|---------|
D|-12\------------------|----------------------------------------|---------|
A|-----5--5-3-0---------|------------0--0-0---------------0--0-0-|---------|
E|---------------3--3-3-|-3--3-3--1----------1--3--3-3--1--------|-3~~-1~~-|


G|----------|------------|----------|------------|
D|-------h--|-------h--3-|-------h--|-------h--3-|
A|-5--5-3-5-|-5--5-3-5---|-5--5-3-5-|-5--5-3-5---|
E|----------|------------|----------|------------|

01:28
G|--------------------|----------------------------------------|---------|
D|--------------------|----------------------------------------|---------|
A|-5--5-5-3-0---------|------------0--0-0---------------0--0-0-|---------|
E|-------------3--3-3-|-3--3-3--1----------1--3--3-3--1--------|-3~~-1~~-|


G|----------|------------|----------|------------|---|
D|-------h--|-------h--3-|-------h--|-------h--3-|---|
A|-5--5-3-5-|-5--5-3-5---|-5--5-3-5-|-5--5-3-5---|-1-|
E|----------|------------|----------|------------|---|


-------------------------------------
01:42
VERSE 2
********
G|-------------------------------------------|
D|-------------------3-----------------------|
A|-0-1---0-1---0-1---------------------------|
E|---------------------1---1-1----1-3----1-3-|

01:58
G|-------|--------------------|--------------------|--------------------|----------------|
D|-------|--------------------|--------------------|--------------------|--------------s-|
A|--s--2-|-3-3--3-3--3-3--2-3-|-3-3--3-3--3-3--2-3-|-3-3--3-3--3-3--2-3-|-3-3--3-3--3-3\-|
E|-3\5---|--------------------|--------------------|--------------------|----------------|


-------------------------------------
02:07
PRE CHORUS
***********
G|-------------------------------------10--s-s-----------|
D|----------------------------------------7\9/7----------|
A|---------------s--3-5~~~~~~~-8~~--------------9-5~~~~~-|
E|-1~~~~~~------3\5--------------------------------------|


-------------------------------------
02:29
CHORUS
*******
G|---s------------------|----------------------------------------|---------|
D|-12\------------------|----------------------------------------|---------|
A|-----5--5-3-0---------|------------0--0-0---------------0--0-0-|---------|
E|---------------3--3-3-|-3--3-3--1----------1--3--3-3--1--------|-3~~-1~~-|


G|----------|------------|----------|------------|
D|-------h--|-------h--3-|-------h--|-------h--3-|
A|-5--5-3-5-|-5--5-3-5---|-5--5-3-5-|-5--5-3-5---|
E|----------|------------|----------|------------|

02:42
G|--------------------|----------------------------------------|---------|------|
D|--------------------|----------------------------------------|---------|------|
A|-5--5-5-3-0---------|------------0--0-0---------------0--0-0-|---------|-5~~~-|
E|-------------3--3-3-|-3--3-3--1----------1--3--3-3--1--------|-3~~-1~~-|------|


-------------------------------------
02:52
PIANO - Bass Comes in At 03:20
******

03:29      03:33                                    03:45
G|-7-7------h----|---h----|------|---h----7-|------|--h----7-7-|-------7-7-|--h----7-7-|
D|---------5-7---|--5-7---|---h--|--5-7-----|--h---|-5-7-------|--h--------|-5-7-------|
A|-------------5-|------5-|--3-5-|------5---|-3-5--|-----5-----|-3-5-5-----|-----5-----|
E|---------------|--------|------|----------|------|-----------|-----------|-----------|

03:51
G|--h----------7-7-|--h----------7-7-|--h----------7-7-|--h----------7-7-|--h-------7-7-|
D|-5-7--h---h------|-5-7--h---h------|-5-7--h---h------|-5-7--h---h------|-5-7--h-------|
A|-----3-5-3-5-----|-----3-5-3-5-----|-----3-5-3-5-----|-----3-5-3-5-----|-----3-5------|
E|-----------------|-----------------|-----------------|-----------------|--------------|

04:00
G|----------7-7-|----------7-7-|----------7-7-|----------7-7-|--------------|
D|--h---h-------|--h---h-------|--h---h-------|--h---h-------|--h---h----h--|
A|-3-5-3-5------|-3-5-3-5------|-3-5-3-5------|-3-5-3-5------|-3-5-3-5--3-5-|
E|--------------|--------------|--------------|--------------|--------------|
04:10
Funkier
G|--------------------|
D|------h-------3-----|
A|-5-5-3-5-5--5---5-3-|
E|--------------------|X8


-------------------------------------
04:26
SOLO
*****        Continue too play this until the end and fade out.......
G|------------------|------------------|------------------|--s----------|
D|------h-------3---|------h-------3---|------------------|-5\7-7-5-3---|
A|-5-5-3-5-5--5---3-|-5-5-3-5-5--5---3-|--------------5---|-----------3-|
E|------------------|------------------|-6--6-6--6--6---4-|-------------|


ENJOY...........



-------------------------------------------------------------------
                            Artist - Supertramp
                           *********************
                               Song - Lady
                              *************
                    Album -  Crisis What Crisis ? (1975)
                   **************************************
                           Tabbed By - Ayreon77
                          **********************
-------------------------------------------------------------------
Tuning = Standard             



00:43
CHORUS
*******
G|-----------------|-----------------------|-----------------------|
D|-----------------|-----------------------|-----------------------|
A|-3-3-------------|-0-1-2-3-3-------------|-0-1-2-3-3-------------|
E|-----0-1-2-3-3-3-|-----------0-1-2-3-3-3-|-----------0-1-2-3-3-3-|


G|------------|-------------|------------|-------------|-------|
D|------------|-------0-0-0-|-0----------|-------0-0-0-|-0---0-|
A|-------0--0-|-2-3-4-------|---4-2--0-0-|-2-3-4-------|---2---|
E|-2-3-4------|-------------|------------|-------------|-------|

00:58
G|-----------------|-----------------------|-----------------------|
D|-----------------|-----------------------|-----------------------|
A|-3-3-------------|-0-1-2-3-3-------------|-0-1-2-3-3-------------|
E|-----0-1-2-3-3-3-|-----------0-1-2-3-3-3-|-----------0-1-2-3-3-3-|


G|------------|-------------|------------|-------------|------------|
D|------------|-------0-0-0-|-0----------|-------0-0-0-|-0----------|
A|-------0--0-|-2-3-4-------|---4-2--0-0-|-2-3-4-------|---4-2--0-0-|
E|-2-3-4------|-------------|------------|-------------|------------|

02:15
G|------------------------|-----------------|-----------------|-----------------|
D|------------------------|-----------------|-----------------|-----------------|
A|-2-4-5--5-5-5-5-5-5-5-5-|-5-5-5-5-5-5-5-5-|-5-5-5-5-5-5-5-5-|-5-5-5-5-5-3-2-0-|
E|------------------------|-----------------|-----------------|-----------------|

01:22
G|--s---s--|----------------|----------|----------|--s---s--|----------------|----------|
D|-5\7-5\7-|----------------|----------|----------|-5\7-5\7-|----------------|----------|
A|---------|-0-0-4-5-6-7--7-|-4-5-7--7-|-3-2-0--0-|---------|-0-0-4-5-6-7--7-|-4-5-7--7-|
E|---------|----------------|----------|----------|---------|----------------|----------|


-------------------------------
01:33
  Oh-la-la-la-la
G|-------|-------------------------------------------------------------|
D|-------|--------------------------s----------------------------------|
A|-5-6-8-|-----------s----5-5-6-6--7\8-8-----------s----5-5-6-6-8-5--5-|
E|-------|-5-5-6-6--7\8-8----------------5-5-6-6--7\8-8----------------|

01:41                     s             s
G|----------|----------|-5\7-7-7-7-7-7-7\-|
D|----------|----------|------------------|
A|-0-3-5--5-|-0-3-5--5-|------------------|
E|----------|----------|------------------|


-------------------------------
01:46
VERSE 2
********
G|---------------s-|------------|-----------------|------------|-----|
D|-9-9----7-9--12\-|-7-7----5-7-|---------------s-|-9-9----7-9-|---7-|
A|------9----------|------7-----|-9-9----7-9--12\-|------9-----|-9---|
E|-----------------|------------|------9----------|------------|-----|


G|------------|------------|------------|------------|------------|-------|
D|-9-9----7-9-|-7-7----5-7-|------------|-9-9----9-7-|-9-9----9-7-|-5~~~~-|
A|------9-----|------7-----|-9-9----7-9-|------9-----|------9-----|-------|
E|------------|------------|------9-----|------------|------------|-------|


-------------------------------
02:17
CHORUS
*******
G|-----------------|-----------------------|-----------------------|
D|-----------------|-----------------------|-----------------------|
A|-3-3-------------|-0-1-2-3-3-------------|-0-1-2-3-3-------------|
E|-----0-1-2-3-3-3-|-----------0-1-2-3-3-3-|-----------0-1-2-3-3-3-|


G|------------|-------------|------------|-------------|-------|
D|------------|-------0-0-0-|-0----------|-------0-0-0-|-0---0-|
A|-------0--0-|-2-3-4-------|---4-2--0-0-|-2-3-4-------|---2---|
E|-2-3-4------|-------------|------------|-------------|-------|

02:32
G|-----------------|-----------------------|-----------------------|
D|-----------------|-----------------------|-----------------------|
A|-3-3-------------|-0-1-2-3-3-------------|-0-1-2-3-3-------------|
E|-----0-1-2-3-3-3-|-----------0-1-2-3-3-3-|-----------0-1-2-3-3-3-|


G|------------|-------------|------------|-------------|------------|
D|------------|-------0-0-0-|-0----------|-------0-0-0-|-0----------|
A|-------0--0-|-2-3-4-------|---4-2--0-0-|-2-3-4-------|---4-2--0-0-|
E|-2-3-4------|-------------|------------|-------------|------------|

02:48
G|------------------------|-----------------|-----------------|-----------------|
D|------------------------|-----------------|-----------------|-----------------|
A|-2-4-5--5-5-5-5-5-5-3-5-|-5-5-5-5-5-5-3-5-|-5-5-5-5-5-5-3-5-|-5-5-5-5-5-5-3-5-|
E|------------------------|-----------------|-----------------|-----------------|


G|-----------------|-----------------|-----------------|-----------------|
D|-----------------|-----------------|-----------------|-----------------|
A|-5-5-5-5-5-5-3-5-|-5-5-5-5-5-5-3-5-|-5-5-5-5-5-5-3-5-|-5-5-5-5-5-5-3-5-|
E|-----------------|-----------------|-----------------|-----------------|

03:01
G|-----------------|-----------------|-----------------|-----------------|
D|-----------------|-----------------|-----------------|-----------------|
A|-5-5-5-5-5-5-3-5-|-5-5-5-5-5-5-3-5-|-5-5-5-5-5-5-3-5-|-5-5-5-5-5-5-3-5-|
E|-----------------|-----------------|-----------------|-----------------|


G|-----------------|-----------------|-----------------|-----------------|
D|-----------------|-----------------|-----------------|-----------------|
A|-5-5-5-5-5-5-3-5-|-5-5-5-5-5-5-3-5-|-5-5-5-5-5-5-3-5-|-5-5-5-5-5-5-3-5-|
E|-----------------|-----------------|-----------------|-----------------|


03:11
G|----------------|----------|----------|--s---s--|----------------|----------|
D|----------------|----------|----------|-5\7-5\7-|----------------|----------|
A|-0-0-4-5-6-7--7-|-4-5-7--7-|-3-2-0--0-|---------|-0-0-4-5-6-7--7-|-4-5-7--7-|
E|----------------|----------|----------|---------|----------------|----------|


-------------------------------
03:24
  Oh-la-la-la-la
G|-------|-------------------------------------------------------------|
D|-------|--------------------------s----------------------------------|
A|-5-6-8-|-----------s----5-5-6-6--7\8-8-----------s----5-5-6-6-8-5--5-|
E|-------|-5-5-6-6--7\8-8----------------5-5-6-6--7\8-8----------------|

01:41                  
G|----------|---------------------------------|
D|----------|-----------------------------s---|
A|-0-3-5--5-|-0-3-5--5-5-5-5-5-5-5-5-5-5-5\17-|
E|----------|---------------------------------|


-------------------------------
04:02
OUTRO
******
G|------------|
D|------------|Repeat this 
A|-0-2-3-5--5-|   Until the 
E|------------|       Change


G|-------4------|------------|------------|---------|
D|-4-5-7--------|------------|------------|---------|
A|---------5--5-|-0-2-3-5--3-|-2-0---5--5-|-0-2-3-5-|Repeat too
E|--------------|------------|-----3------|---------|   The End............


ENJOY..........



-------------------------------------------------------------------
                            Artist - Supertramp
                           *********************
                             Song - Poor Boy
                            *****************
                    Album -  Crisis What Crisis ? (1975)
                   **************************************
                           Tabbed By - Ayreon77
                          **********************
-------------------------------------------------------------------
Tuning = Standard             


00:57
VERSE 1
********
G|-15-15-|-15-15-|-15-15-|-15-15-|-15-15-|-15-15-|-15-15-|-15-15-|
D|-------|-------|-------|-------|-------|-------|-------|-------|
A|-------|-------|-------|-------|-------|-------|-------|-------|
E|-------|-------|-------|-------|-------|-------|-------|-------|
01:14
     h
G|-10-12-10-----------------------|-----------------------|-----------------------|
D|----------8-8---8-8---8-8---8-8-|-8-8---8-8---8-8---8-8-|-8-8---8-8---8-8---8-8-|
A|--------------------------------|-----------------------|-----------------------|
E|--------------------------------|-----------------------|-----------------------|


--------------------------
01:29
CHORUS
*******
G|----------------------5---|--------------------5---|------------------------|
D|---------4-5------5-7---5-|-------4-5------5-7---5-|-------4-5--------------|
A|-8-----------0-6----------|-----------0-6----------|-----------0-6--3-------|
E|---6-6-6------------------|-6-6-6------------------|-6-6-6-------------5--3-|


--------------------------
01:42
VERSE 2
********
G|------------------|--------------------|--------------------|-------------------|
D|--------------3-5-|----------------3-5-|----------------3-5-|---------------3-5-|
A|---------6-6------|-----------6-6------|-----------6-6------|-----------6-6-----|
E|-6--6-6-----------|-6-6--6-6-----------|-6-6--6-6-----------|-6-6--6-6----------|

02:00
G|--------------------|--------------------|--------------------|
D|----------------3-5-|----------------3-5-|----------------3-5-|
A|-----------6-6------|-----------6-6------|-----------6-6------|
E|-6-6--6-6-----------|-6-6--6-6-----------|-6-6--6-6-----------|

02:13
G|---------------------------------------------------|
D|---------------------------------------------------|
A|-8---------5-6-6-6-6-7-7-7-7-7-9-8-6-4-3~~~---3----|
E|---6-6-6-6----------------------------------3----1-|


--------------------------
02:27
PRE CHORUS
***********
G|---------------------------------|-------------------------|
D|---------------------------------|-------------------------|
A|-1~~~-1-0~~~-0-------------0-3---|-1~~~-1-0~~~-0-----------|
E|---------------4~~~-3--3-3-----3-|---------------4~~~-3~~~-|



This Is A Double Bass, Tabbed out for a Norman Bass.
02:46
G|----------------------------|-------------------------------|
D|---------------12-----------|-------------------------------|
A|----10--12-13-----13--10----|-----------10--10--------------|
E|-10----------------------10-|-10-11--12--------10--8--6--5--|


G|---------------------------------------------------------------|
D|---------------12----------------------------------------------|
A|-10--10-12-13-----13--10----------------------------8--8--8--8-|
E|-------------------------10--10-11--11--11--11-10-8------------|


--------------------------
03:04
CHORUS
*******
G|-10--------------------------|-10-----------------------------|
D|----12-8---------------10----|----12-8------------8-10-8----8-|
A|---------8-------10-12----12-|---------8-------10--------10---|
E|-----------10-11-------------|-----------10-11----------------|

03:13
G|-10--------------------|
D|----12-8---------------|
A|---------8-------------|
E|-----------10-11-8-6-3-|


--------------------------
03:18
VERSE 3
********
G|--------------------|--------------------|--------------------|-------------------|
D|----------------3-5-|----------------3-5-|----------------3-5-|---------------3-5-|
A|-----------6-6------|-----------6-6------|-----------6-6------|-----------6-6-----|
E|-6-6--6-6-----------|-6-6--6-6-----------|-6-6--6-6-----------|-6-6--6-6----------|

03:35
G|--------------------|--------------------|--------------------|
D|----------------3-5-|----------------3-5-|----------------3-5-|
A|-----------6-6------|-----------6-6------|-----------6-6------|
E|-6-6--6-6-----------|-6-6--6-6-----------|-6-6--6-6-----------|

03:48
G|---------------------------------------------------|-----|
D|---------------------------------------------------|-----|
A|-8---------5-6-6-6-6-7-7-7-7-7-9-8-6-4-3~~~---3----|---1-|
E|---6-6-6-6----------------------------------3----1-|-1---|


--------------------------
04:05
OUTRO
******
G|----------------|------------------------------------------------|
D|----------------|------------------------------------------------|
A|----------------|-----5-6-6-6--6-5-6-7-7-7-7-9-8-6-4-3~~~---3----|
E|-1~~~-6---6---6-|-6-8-------------------------------------3----1-|



ENJOY..............



-------------------------------------------------------------------
                            Artist - Supertramp
                           *********************
                         Song - Just A Normal Day
                        **************************
                    Album -  Crisis What Crisis ? (1975)
                   **************************************
                           Tabbed By - Ayreon77
                          **********************
-------------------------------------------------------------------
Tuning = Standard             


INTRO
******
G|------------------------------------|
D|------------------------------------|
A|-1~~~~~-1~~~~~-1~~~~~-1~~~~~-1~~~~~-|
E|------------------------------------|


------------------------
00:25
VERSE 1
********
G|-------------------------------|---------|-----------------------------------|---------|
D|------s-7-----3--3-------------|--s------|--------7--7----2-3---s------------|--s------|
A|-1~~~-\----5-------5-----------|-5\8---s-|-1~~~-7------5-------3\5-----------|-5\8-7---|
E|---------------------3--3-3--1-|------9\-|-------------------------3--3-3--1-|-------7-|


------------------------
01:00
CHORUS
*******
G|----------|-7---------------------------------|
D|----------|---7-------------------------------|
A|----------|-----5--5--3--3-----------3-5----5-|
E|-5~~~-5-5-|----------------6--6-5--5------5---|

01:16
G|--------------|-7---------------------------------|-------|
D|--s-----------|---7-------------------------------|-------|
A|-5\7----------|-----5--5--3--3-----------3-5----5-|-5-7-8-|
E|-----5~~~-5-5-|----------------6--6-5--5------5---|-------|


------------------------
01:34
VERSE 2
********
G|----------------------------------------------------|
D|-----------7~~--s-------------------------3---------|
A|-------5-7-----7\-5--7--8--5----------------------s-|
E|-6~~~~------------------------3--3-3--3-1---1--1-3\-|

01:51
G|--------------------------------------------|----------------|
D|-----------7~~--s---------------------------|--s-------------|
A|-------5-7-----7\-5--7--8--5--5-------------|-5\8-7--7-8-7---|
E|-6~~~~--------------------------3--3-3--3-1-|--------------8-|


------------------------
02:08
CHORUS
*******
G|----------|-7-------------------------------7-|
D|----------|---7---------------------------7---|
A|----------|-----5--5--3--3-----------3-5------|
E|-5~~~-5-5-|----------------6--6-5--5----------|


02:25
G|-------------------------------------------------|--------|
D|-------7------7----------------------------------|------s-|
A|---------7-------s-5--5--3--3-----------3-5----5-|-5-4-5\-|
E|-5~~~------5----5\------------6--6-5--5------5---|--------|


------------------------
02:42
SAX
****
G|--------------------|-----------|--------------|--------------------------------|
D|--------------------|-----------|--------------|-----------------------s--------|
A|-6~~-6-5--5---------|-----------|-5----3-----1-|---1--1-1-3-6--6-6-5--5\------1-|
E|------------3--5--6-|-6-5-3-1-3-|---1----1-3---|-1-----------------------3--3---|

03:07
G|---------------------|
D|---------------------|
A|-1-----3-------------|
E|---1-3-----1------0--|


------------------------
03:18
OUTRO
******
G|-------------------------------------|-------------------------------------|
D|-------------------------------------|--s------------------------------s---|
A|--s------------------s-3------s-3----|-1\5-------1~~~~~-1~~~~~-1~~~~~-1\13-|
E|-1\-6---5---4---3---1\----1--1\----1-|------3------------------------------|


ENJOY............



-------------------------------------------------------------------
                            Artist - Supertramp
                           *********************
                            Song - The Meaning
                           ********************
                    Album -  Crisis What Crisis ? (1975)
                   **************************************
                           Tabbed By - Ayreon77
                          **********************
-------------------------------------------------------------------
Tuning = Standard             


INTRO - Fade In
******
00:10
G|-11--11-11-11--11-11-11--11-11-11-|
D|----------------------------------|Repeat This
A|----------------------------------|  Until
E|----------------------------------|     VERSE 1


--------------------
00:40
VERSE 1
********
G|-11-|-11-11-11--11-11-12--12-12-12--12-12-11-|-11-11-11--11-11-12--12-12-12--12-12-11-|
D|----|----------------------------------------|----------------------------------------|
A|----|----------------------------------------|----------------------------------------|
E|----|----------------------------------------|----------------------------------------|


G|-11-11-11--11-11-12--12-12-12--12-12-14~~~-|---------------s-------------------------7~~-|
D|-------------------------------------------|-11-12-14~~~-14\------------------s--7-9-----|
A|-------------------------------------------|------------------5-----5----5---7\9---------|
E|-------------------------------------------|----------------------5----5-----------------|


--------------------
01:07
PRE CHORUS
***********
    s                                    s
G|-7\-19~~~---------------------------|-7\-19~~~---------------|
D|----------20-19~~--17-----16~~~---s-|----------20-19--18--17-|
A|-----------------------17-------17\-|------------------------|
E|------------------------------------|------------------------|


--------------------
01:24
CHORUS
*******
G|-----|---------|---------|---------------|-----|---------|---------|---------------|
D|-4-4-|---2-4-4-|---2-4-4-|---0-----0-----|-4-4-|---2-4-4-|---2-4-4-|---0-----0-----|
A|-----|-4-------|-4-------|-2---4-2---4-2-|-----|-4-------|-4-------|-2---4-2---4-2-|
E|-----|---------|---------|---------------|-----|---------|---------|---------------|

01:33
G|-----|---------|---------|---------------|-2~~~~---2---2~~~~-|---------------|------11-12-11-7-|
D|-4-4-|---2-4-4-|---2-4-4-|---0-----0-----|-----------2-------|---------------|-12~~------------|
A|-----|-4-------|-4-------|-2---4-2---4-2-|-------------------|---5----5----5-|-----------------|
E|-----|---------|---------|---------------|-------------------|-5----5----5---|-----------------|


--------------------
01:51
PRE CHORUS
***********
    S
G|-7\-19~~-------------|----11-14-12~~~-11-|----11-14-12~~~-12-|-14--13--12-|
D|---------20--17-19~~-|-12----------------|-12----------------|------------|
A|---------------------|-------------------|-------------------|------------|
E|---------------------|-------------------|-------------------|------------|


--------------------
02:08
CHORUS - Key Change
*******
G|-----|----------|---------|-----|---------|----------|---------|-----|
D|-----|----------|---------|-----|---------|----------|---------|-----|
A|-5-5-|-5-5--5-5-|-----5-5-|-5-5-|-----5-5-|-5-5--5-5-|-----5-5-|-5-5-|
E|-----|----------|-5-7-----|-----|-5-7-----|----------|-5-7-----|-----|

02:17
G|---------|-----|---------|-----|---------|-----|---------|-----|
D|---------|-----|---------|-----|---------|-----|---------|-----|
A|-----5-5-|-5-5-|-----5-5-|-5-5-|-----5-5-|-5-5-|-----5-5-|-5-5-|
E|-5-7-----|-----|-5-7-----|-----|-5-7-----|-----|-5-7-----|-----|

02:25
G|---------|-----|---------|-----|---------|-----|----------------------------|-7--7-7-7--------|
D|---------|-----|---------|-----|---------|-----|----------------------------|----------10-7---|
A|-----5-5-|-5-5-|-----5-5-|-5-5-|-----5-5-|-5-5-|-----5~~~-7-9-5~~~-7-9-5~~~-|---------------9-|
E|-5-7-----|-----|-5-7-----|-----|-5-7-----|-----|-5-7------------------------|-----------------|


--------------------
02:38
SAX
****
G|-----|---------|---------|---------------|-----|---------|---------|---------------|
D|-4-4-|---2-4-4-|---2-4-4-|---0-----0-----|-4-4-|---2-4-4-|---2-4-4-|---0-----0-----|
A|-----|-4-------|-4-------|-2---4-2---4-2-|-----|-4-------|-4-------|-2---4-2---4-2-|
E|-----|---------|---------|---------------|-----|---------|---------|---------------|

02:46
G|-----|---------|---------|---------------|-2~~~~---2---------|---------------------|-------11-12-11-7-|
D|-4-4-|---2-4-4-|---2-4-4-|---0-----0-----|-----------2-------|---------------------|-12-12------------|
A|-----|-4-------|-4-------|-2---4-2---4-2-|-------------0~~~~-|-0-2-4-5~~~---5----5-|------------------|
E|-----|---------|---------|---------------|-------------------|------------5----5---|------------------|


-------------------
03:04
PRE CHORUS
***********
    s                                                         s     s  
G|-7\-19~~~---------|----11-14-12~~~-12~~~-11~~~-|----11-14-14\15-14\15-14~~~-13~~~-12~~~-|
D|----------20-19~~-|-12-------------------------|-12-------------------------------------|
A|------------------|----------------------------|----------------------------------------|
E|------------------|----------------------------|----------------------------------------|


-------------------
03:21
CHORUS
*******
G|-----|-----|---------|-----|---------|-----|---------|-----||
D|-----|-----|---------|-----|---------|-----|---------|-----|
A|-5-5-|-5-5-|-----5-5-|-5-5-|-----5-5-|-5-5-|-----5-5-|-5-5-|
E|-----|-----|-5-7-----|-----|-5-7-----|-----|-5-7-----|-----|

03:29
G|---------|-----|---------|-----|---------|-----|---------|-----|
D|---------|-----|---------|-----|---------|-----|---------|-----|
A|-----5-5-|-5-5-|-----5-5-|-5-5-|-----5-5-|-5-5-|-----5-5-|-5-5-|
E|-5-7-----|-----|-5-7-----|-----|-5-7-----|-----|-5-7-----|-----|

03:38
G|---------|-----|---------|-----|---------|-----|---------|-----|
D|---------|-----|---------|-----|---------|-----|---------|-----|
A|-----5-5-|-5-5-|-----5-5-|-5-5-|-----5-5-|-5-5-|-----5-5-|-5-5-|
E|-5-7-----|-----|-5-7-----|-----|-5-7-----|-----|-5-7-----|-----|

03:47
G|---------|-----|---------|-----|---------|-----|---------|-----|
D|---------|-----|---------|-----|---------|-----|---------|-----|
A|-----5-5-|-5-5-|-----5-5-|-5-5-|-----5-5-|-5-5-|-----5-5-|-5-5-|
E|-5-7-----|-----|-5-7-----|-----|-5-7-----|-----|-5-7-----|-----|

03:55
G|---------|-----|---------|-----|---------|-----|---------|-------|
D|---------|-----|---------|-----|---------|-----|---------|-------|
A|-----5-5-|-5-5-|-----5-5-|-5-5-|-----5-5-|-5-5-|-----5-5-|-5-5-5-|
E|-5-7-----|-----|-5-7-----|-----|-5-7-----|-----|-5-7-----|-------|

04:04                 Just repeat this and fade out.......................
G|---------------|------------------|------------------|------------------|
D|---------------|------------------|------------------|------------------|
A|-----5-5-5-5-5-|-----5-5--5-5-5-5-|-----5-5--5-5-5-5-|-----5-5--5-5-5-5-|
E|-5-7-----------|-5-7--------------|-5-7--------------|-5-7--------------|


ENJOY...........



-------------------------------------------------------------------
                            Artist - Supertramp
                           *********************
                             Song - Two Of Us
                            ******************
                    Album -  Crisis What Crisis ? (1975)
                   **************************************
                           Tabbed By - Ayreon77
                          **********************
-------------------------------------------------------------------
Tuning = Standard             

Bass Comes In On The Clarinet Solo 01:43


01:43
CLARINET SOLO
**************
G|--------------------------------------|--------------------------------------|------------|
D|--------------------------------------|--------------------------------------|------------|
A|-------------------------------7----8-|-------------------------------7----8-|-9--9--8--6-|
E|-6----6----6----6----6----6-----------|-6----6----6----6----6----6-----------|------------|


-----------------------
02:23
CHORUS
*******
G|-------------------------|------------------|
D|-------------------------|----8----8--------|
A|----8-9-11--------8-9-11-|-11----8-----s----|
E|-8----------10-8---------|------------5\-10-|

02:39
G|-----------------------------------|
D|-----------------------------------|
A|----7-8--8---8-7-----7-8---7--5--4-|
E|-10---------------10---------------|



ENJOY...........
Suggest correction
Creating personal tab
Creating personal tab
You can edit any tab online and save it as your Personal.

You can edit, replace or remove any tab part or add personal notes – all changes will be seen only by you.

Personal tabs can be accessed anytime from any device, even offline.
Learn more »
Give kudos to tab author, rate the tab!
1 2 3 4 5
comments
print report bad tab
guest
You may want to rate the tab now too:
select rating
Wanna post a correction for this tab? Suggest correction