Oops, an error
Loading. Please wait.

Dont Leave Me Now Tab

version 1
version 1

Solo

Interactive

4,113 views 3 this week
no commentswrite comment
1 2 3 4 5
excellent!
x 5
add to favorites
launch autoscroll
font size
0
reset
how to read this tab
guitar tuner
Tab Pro tools
  • play this tab
  • loop segment
  • change instrument
  • show fretboard
  • metronome
×
Best way to learn
"Dont Leave Me Now"
Autoscroll
slow
fast
+/-
esc
set tempo
stop
Contributor
Difficulty
intermediate
Supertramp
Don't Leave Me Now [SOLO]

Standard Tuning ( E A D G B e )

b bend
h hammer on
p pull off
/ slide up
\ slide down

e |-----------------------------------------------------------------------|
B |----------------------------------------------------9-11b12-11-9h11----|
G |--------------------5-8-8b-------------8b-8---/8-10-----------------10-|
D |-1/3----3-5-6-6/8-------------5-6-6/8----------------------------------|
A |----------------------------8------------------------------------------|
E |-----------------------------------------------------------------------|

e |-----11-----11----------------13-----------------------------11b-11----|
B |-11b----11b----11p9h11----/13----16----------------9-11b-11------------|
G |------------------------------------15b-15-13-10-----------------------|
D |-----------------------------------------------------------------------|
A |-----------------------------------------------------------------------|
E |-----------------------------------------------------------------------|

e |--------8-11b-11p8-11b---15b-15b-15b-15b-p13-11----13b-13b-13b-11h13-13|
B |-11b-11----------------------------------------------------------------|
G |-----------------------------------------------------------------------|
D |-----------------------------------------------------------------------|
A |-----------------------------------------------------------------------|
E |-----------------------------------------------------------------------|

e |-16-18-13--16-18b18---18b-18b-16-18-18b-18b-16h18-16p15------------|
B |--------------------------------------------------------16----18b--|
G |-----------------------------------------------------------15------|
D |-------------------------------------------------------------------|
A |-------------------------------------------------------------------|
E |-------------------------------------------------------------------|

e |-------------------------------------------------------|
B |-16b18b16--16b-13----16---16---------------------------|
G |------------------15b--15b--15----15b15-15b15-13-12-10-|
D |-------------------------------------------------------|
A |-------------------------------------------------------|
E |-------------------------------------------------------|
comments
print report bad tab
I want to post or [tab]
guest
You may want to rate the tab now too:
select rating
Please do not post tabs as comments. Select "correction" instead!