Oops, an error
Loading. Please wait.

Even In The Quietest Moments Tab

version 1
version 1

Whole song

  • Based off the studio recording of the song. All no... Show more

Interactive

22 views 3 this week
no commentswrite comment
1 2 3 4 5
3 more votes to show rating
add to favorites
launch autoscroll
font size
0
reset
how to read this tab
guitar tuner
Autoscroll
slow
fast
+/-
esc
set tempo
stop
Help us to improve Ultimate-Guitar.com Take our survey!
×
Author
Difficulty
intermediate
About this tab version
Based off the studio recording of the song. All notes are sixteenth notes, except for for the fourth note in Section 1, which is an eighth note (or a sixteenth note followed by a sixteenth rest.). Was this info helpful? Yes No
[Intro]

SECTION 1
e||--7-----7-7-----------7---5-----------5---------------3---------|
B||--8---8-----8-------5-------5-------7-----7---------3-------3---|
G||o-7-7---------7---6-----6-----6---5---------5-----4-------4---4-|
D||o-0-------------0---------------0-------0-----0-0-------0-------|
A||----------------------------------------------------------------|
E||----------------------------------------------------------------|
                                                        2nd ending    
e|--------5---------------3---------------3----------|R|-------3---------|
B|-----7------7---------3-------3-------3-------3----|E|-----3-------3---|
G|---5----------5-----4-------4---4---4-------4---4-o|P|---3-------3---3-|
D|-0--------0-----0-0-------0-------0-------0-------o|E|-0-------0-------|
A|---------------------------------------------------|A|-----------------|
E|---------------------------------------------------|T|-----------------|


SECTION 2
e|------0--------------0---------------0---------------0---------|
B|----3-------3-------3------3-------3-------3-------3-------3---|
G|--2-------2---2---3------2---3---2-------2---2---2-------2---2-|
D|5---------------4--------------5---------------4---------------|
A|--------0--------------0---------------0---------------0-------|
E|---------------------------------------------------------------|

e|------1---0-----------------0---------0---------------2--------|
B|----3-------3---------1---3---------1-------1-------3-------3--|
G|--2-----------2-----0---------0---0-------0---0---2-------2---2|
D|3-------3---------2-----2-------0---------------0--------------|
A|----------------0-----------------------0---------------0------|
E|---------------------------------------------------------------|


SECTION 3
e|------0---------------2---------|
B|----1-------1-------3-------3---|
G|--0-------0---0---2-------2---2-|
D|0---------------0---------------|
A|--------0---------------0-------|
E|--------------------------------|


ORDER

SECTION 1 x1
SECTION 2 x2
SECTION 3 x1
SECTION 1 x1
SECTION 2 x2
SECTION 3 x6
SECTION 1 x1
SECTION 2 x2
SECTION 3 x39
SECTION 1 x1

************************************

| x   Dead note
| g   Grace note
| (n) Ghost note
| h   Hammer-on
| p   Pull-off
| r   Release
| >   Accented note
| t   Tapping
| b   Bend
| br  Bend release
| pb  Pre-bend
| pbr Pre-bend release
| /   Slide up
| \   Slide down
| ~   Vibrato
| s   Slap
| P   Pop
| PM  Palm mute
| TR  Trill
| N   Tremolo

************************************
Suggest correction
Give kudos to tab author, rate the tab!
1 2 3 4 5
comments
print report bad tab
guest
You may want to rate the tab now too:
select rating
Wanna post a correction for this tab? Suggest correction