Oops, an error
Loading. Please wait.

Give A Little Bit Bass Tab

version 1
version 1

Whole song

Interactive

18,241 views 45 this week
no commentswrite comment
1 2 3 4 5
x 5
add to favorites
launch autoscroll
font size
0
reset
guitar tuner
Autoscroll
slow
fast
+/-
esc
set tempo
stop
Help us to improve Ultimate-Guitar.com Take our survey!
×
Author
Difficulty
intermediate
Give a little bit - Supertramp
Tabbed by: Max la Menace
                                                           
Main Riff 

G|----||--------------------------------------||
D|----||o-0-0----0-0-------------------------o|| 
A|--0-||o------0----------0-0-------0-0------o||
E|----||-------------3-3-------3-3--------3-3-||

Bridge

|---------------------0--------------------------|
|-------0-2----2-2-4---------------------7---7---|
|-2-2-------------------------0---0-0--0---0-----|
|-----------------------3/5----------------------|

Solo Sax

|---------------------------------------------------------------------|
|-------------0-2-4--------------0------------------------------------|
|--------2-4-----------------2-4---4-2------------2--0---3------2-0---|
|-2---2--------------2---2--------------2---2--3-------3---2-3--------|

|--------------------------7-6-------------------------| 
|-4h5-7----7-7----4h5-7--------9\----4h5-7-----7-7-----|
|-------0-------0-------0---------0---------0----------|   
|------------------------------------------------------|  

Main riff

||-------------------------------------||
||-0-----0-0--------------------------o|| 
||-----0----------0-0-------0-0-------o||
||-----------3-3-------3-3--------3-3--||

Bridge

|-------------------------------------------------|
|------7/9-7--------------------------------------|
|-2-2--------10-9-7--7-7-9-10--------0-3--------0-|
|-------------------------------12\-------3-5-----|

|--------------------------7-6-------------------------| 
|-4h5-7----7-7----4h5-7--------9\----4h5-7-----7-7-----|
|-------0-------0-------0---------0---------0----------|   
|------------------------------------------------------|


Outro

|-----------------------------------------------------------------|
|--0-0-----0-0----0-0----0--0-4-5-7/12-12---9h10-9----------------|
|------0-------0------0----------------------------7-5-----3-2-0--|
|-----------------------------------------------------------------|

|-----------------------------------------------------------------|
|--0-0-----0-0----0-0----0--0-4-5-7/12-12---9h10-9----------------|
|------0-------0------0----------------------------7-5------------|
|----------------------------------------------------------10\----|

|--------------------------------------------11-12-11---------------|
|--0-0-----0-0----0-0----0--0-4-5-7/12-12-------------9-12--12-9\-0-|
|------0-------0------0---------------------------------------------|
|-------------------------------------------------------------------|

|----------------------------------------------------------------------|
|--0-0-----0-0----0-0----0--0-4-5-7/12-12----0-0--0-4-5-7/12-12--0-0---|
|------0-------0------0--------------------7\--------------------------|
|----------------------------------------------------------------------|

|-------------------------5---0-5-4----0-4-2---0-------------|
|-4/12-12-----0-0---0-4-5--------------------------4-2-2-0---|
|----------7\------------------------------------------------|
|------------------------------------------------------------|

voice and guitar
Suggest correction
comments
print report bad tab
guest
You may want to rate the tab now too:
select rating
Wanna post a correction for this tab? Suggest correction