Oops, an error
Loading. Please wait.

My Kind Of Lady bass

version 1
version 1

Whole song

209 views 3 this week
1 commentread comment
1 2 3 4 5
2 more votes to show rating
add to favorites
×
Save as Personal and add changes to this tab that will be seen only by you. Learn more ›
×
You can save this tab as Personal to edit and correct it or add notes. All changes will be seen only by you. Learn more »
launch autoscroll
font size
0
reset
guitar tuner
edit
Autoscroll
slow
fast
+/-
esc
set tempo
stop
Author
Difficulty
SUPERTRAMP
My kind of Lady
Album: Famous last words
by Rick Davies

1982 A & M Records ltd
Bassist: Douglas Thomson


Bass Tabs
Tuning : E A D G
Tempo  : 119 bpm
Key signature: A / C / G sharp


Intro1: 00:01  (Rick Davies)  
G|------------|-------|------------||-------|-
D|-7g--4------|---4-7-|-7g--4------||-------|-
A|-------7-5--|-7-----|-------7-5g-||-------|- 
E|------------|-------|------------||-------|-
Let me tell you what I want to say

G|------------|--------------||-
D|-7g--4------|--------------||-
A|-------7-5--|-2g-4g--5-6-7-||- 
E|------------|--------------||-
You're the only one who can make me feel this way


Verse1: 00:12 (Rick Davies)
G|--------------------|-------|--------------------|-------|-
D|-7g-7-4g--4---------|-------|-7g-7-4g--4---------|-------|-
A|------------5g--5-7-|-5-6-7-|------------5g--5-7-|-5-6-7-|- 
E|--------------------|-------|--------------------|-------|-
My kind of lady
No better love could I embrace
No better heart, no other face
Can quite compare with you

G|--------------------||-------------|-------------|-
D|-7g-7-4g--4---------||-2-3-4--4-4g-|-------------|-
A|------------5g--5-7-||-------------|-5-4-2--2-2g-|- 
E|--------------------||-------------|-------------|-
You came along and then you mend my broken dreams

G|-------------|-------------|-
D|-2-3-4--4-4g-|-------------|-
A|-------------|-5-4-2--2-2g-|-  
E|-------------|-------------|-
I was so down and then as foolish as it seems

G|-------------|-------------||-
D|----2g--2-2--|----2g--2-2--||-
A|-4-----------|-4-----------||- 
E|-------------|-------------||-
You gave me your affection
Yeh baby you came through


Verse2: 00:48 (Rick Davies)
G|--------------------|-------|--------------------|-------|-
D|-7g-7-4g--4---------|-------|-7g-7-4g--4---------|-7-4---|-
A|------------5g--5-7-|-5-6-7-|------------5g--5-7-|-----7-|- 
E|--------------------|-------|--------------------|-------|-
We'll make it you'll see
In spite of those who say it's wrong
This time we feel that we belong
Now we can truly say

G|--------------------||-------------|-------------|-
D|-7g-7-4g--4---------||-2-3-4--4-4g-|-------------|-
A|------------5g--5-7-||-------------|-5-4-2--2-2g-|- 
E|--------------------||-------------|-------------|-
We'll be together and that's all we'll ever need

G|-------------|-------------|-
D|-2-3-4--4-4g-|-------------|-
A|-------------|-5-4-2--2-2g-|-  
E|-------------|-------------|-
We'll love each-other, that's the way it's gonna be

G|-------------|-------------||-
D|----2g--2-2--|----2g--2-2--||-
A|-4h----------|-4h----------||- 
E|-------------|-------------||-
And nothin' under the sun of moon
Can make us be apart


Bridge1: 01:25 (Roger Hodgson)
G|--------------------|-------|--------------------|-------|-
D|--------------------|-------|--------------------|-------|-
A|/8g-8-5g--5---------|-------|-8g-8-5g--5---------|-8-5---|- 
E|------------6g--6-8-|-6-7-8-|------------6g--6-8-|-----8-|-
Oh my honey
You know I'll love you every day
When things go wrong we'll find a way

G|--------------------|------------||-------------|-------------|-
D|--------------------|------------||-------------|-------------|-
A|-8g-8-5g--5---------|------------||-3-4-5g--5-5-|-------------|- 
E|------------6g--6-8-|-8--5g--5-5-||-------------|-6-5-3g--3-3-|-
I'm so glad I met you
Much more than I can ever say
We're making plans and holding hands just like before

G|-------------|-------------||-------------|-------------|-
D|-------------|-------------||-------------|-------------|-
A|-3-4-5g--5-5-|-------------||-3-4-5g--5-5-|-------------|- 
E|-------------|-6-5-3g--3-3-||-------------|-6-5-3g--3-3-|-
We'll try again, we'll make amends along the road
It's fellin' good, just like it should, this time we know

G|-------------|-------------||-
D|-------------|-------------||-
A|----3g--3-3--|----3g--3-3--||-
E|-5h----------|-5h----------||-
We'll share each-other's happiness for now and evermore


Break: 02:10  (Rick Davies)
G|------------|-------|------------||-------|-
D|-7g--4------|---4-7-|-7g--4------||-------|-
A|-------7-5--|-7-----|-------7-5g-||-------|- 
E|------------|-------|------------||-------|-
I've been wastin' my life away

G|------------|--------------||-
D|-7g--4------|--------------||-
A|-------7-5--|-2g-4g--5-6-7-||- 
E|------------|--------------||-
I've got a message for you today
To tell you that you are


Verse3: 02:22  (Rick Davies)
G|--------------------|-------|--------------------|-------|-
D|-7g-7-4g--4---------|-------|-7g-7-4g--4---------|-------|-
A|------------5g--5-7-|-5-6-7-|------------5g--5-7-|-5-6-7-|- 
E|--------------------|-------|--------------------|-------|-
My kind of lady
I'm not the same since I met you
All of my dreams had fallen through
And then you came along

G|--------------------||-------------|-------------|-
D|-7g-7-4g--4---------||-2-3-4--4-4g-|-------------|-
A|------------5g--5-7-||-------------|-5-4-2--2-2g-|- 
E|--------------------||-------------|-------------|-
One magic night when things went right it was so fine

G|-------------|-------------|-
D|-2-3-4--4-4g-|-------------|-
A|-------------|-5-4-2--2-2g-|-  
E|-------------|-------------|-
Looked in your eyes and realised that you were mine

G|-------------|-------------||-
D|----2g--2-2--|----2g--2-2--||-
A|-4-----------|-4-----------||- 
E|-------------|-------------||-
And nothin' under the sun of moon
Can make us be apart


Bridge2: 02:58 (Roger Hodgson)
G|--------------------|-------|--------------------|-------|-
D|--------------------|-------|--------------------|-------|-
A|/8g-8-5g--5---------|-------|-8g-8-5g--5---------|-8-5---|- 
E|------------6g--6-8-|-6-7-8-|------------6g--6-8-|-----8-|-
Oh my baby
You know I'll love you all the way
When times get hard we'll smile and say

G|--------------------|------------||-------------|-------------|-
D|--------------------|------------||-------------|-------------|-
A|-8g-8-5g--5---------|------------||-3-4-5g--5-5-|-------------|- 
E|------------6g--6-8-|-8--5g--5-5-||-------------|-6-5-3g--3-3-|-
I'm so glad I met you
I'll love you more and more each day
We're making plans and holding hands just like before

G|-------------|-------------||-------------|-------------||-
D|-------------|-------------||-------------|-------------||-
A|-3-4-5g--5-5-|-------------||-3-4-5g--5-5-|-------------||-
E|-------------|-6-5-3g--3-3-||-------------|-6-5-3g--3-3-||-
We'll try again, we'll make amends along the road
It's fellin' good, just like it should, this time we know

G|-------------|-------------||-
D|-------------|-------------||-
A|----3g--3-3--|----3g--3-3--||-
E|-5h----------|-5h----------||-
We'll share each-other's happiness 
for now and evermore


Instrumental/Outro: 03:46 (Play X2) (Saxo: John Helliwell)
G|--------------------|-------|--------------------|-------|-
D|/6g-6-3g--3---------|-------|-6g-6-3g--3---------|-6-3---|- 
A|------------4g--4-6-|-4-5-6-|------------4g--4-6-|-----6-|-
E|--------------------|-------|--------------------|-------|-

G|--------------------|------------||-------------|-------------|-
D|-6g-6-3g--3---------|------------||-1-2-3g--3-3-|-------------|-
A|------------4g--4-6-|-6--3g--3-3-||-------------|-4-3-1g--1-1-|- 
E|--------------------|------------||-------------|-------------|-

G|-------------|-------------||-------------|-------------||-
D|-1-2-3g--3-3-|-------------||-1-2-3g--3-3-|-------------||-
A|-------------|-4-3-1g--1-1-||-------------|-4-3-1g--1-1-||-
E|-------------|-------------||-------------|-------------||-

G|-------------|-------------||-
D|----1g--1-1--|----1g--1-1--||-
A|-3h----------|-3h----------||-
E|-------------|-------------||-


End: 05:16


Tablature Legend ----------------  
| S  slap 
| P  pop 
| x  mute note 
| .  full stop
| /  slide up 
| \  slide down 
| h  hammer-on 
| p  pull-off 
| g  grace note 
| ~  vibrato 
| ^  brush up
| >  Link to next note

            
            
Suggest correction
Creating personal tab
Creating personal tab
You can edit any tab online and save it as your Personal.

You can edit, replace or remove any tab part or add personal notes – all changes will be seen only by you.

Personal tabs can be accessed anytime from any device, even offline.
Learn more »
Give kudos to tab author, rate the tab!
1 2 3 4 5
comments
print report bad tab
1 comment total.
0 reply
Bruno Frenchy 4,686 Aug 23, 2015 07:27 AM

Great song from Supertramp - 1982 Famous Last Words Album - and lovely Bass line in three different keys... So enjoy !! and Rate !! Take care, Bruno

guest
You may want to rate the tab now too:
select rating
Wanna post a correction for this tab? Suggest correction