Oops, an error
Loading. Please wait.

Rudy bass

version 1
version 1

Whole song

Interactive

304 views 3 this week
no commentswrite comment
1 2 3 4 5
x 5
add to favorites
×
Save as Personal and add changes to this tab that will be seen only by you. Learn more ›
×
You can save this tab as Personal to edit and correct it or add notes. All changes will be seen only by you. Learn more »
launch autoscroll
font size
0
reset
guitar tuner
edit
Autoscroll
slow
fast
+/-
esc
set tempo
stop
Author
Difficulty
-----------------------------------------------------------------------------
                                          Artist - Supertramp 
                                         *********************
                                              Song - Rudy    
                                             *************
                                   Album - Crime Of The Century (1974)  
                                  *************************************
                                         Tabbed By - Ayreon77
                                        **********************
-----------------------------------------------------------------------------
Tuning = Standard


01:20
  He needs time          He needs a time for livin
G|----------------------|-------------------------------|
D|----------------------|-------------------------------|
A|----------------------|-------------------------------|
E|--------------5--5--5-|-----------------------5--5--5-|

  He needs time         for someone just to see him
G|---------------------|-----------------------------|
D|---------------------|-----------------------------|
A|-------------5--5--5-|-----------------------------|
E|---------------------|---------------------5--5--5-|

  He ain't had no lovin                for no reason or rhyme              And the whole world's above him
G|---------|---------|---------|------|---------|---------|---------|-----|--------|------|------------------|
D|-------5-|-5-------|---------|------|-------3-|-3-------|---------|-----|-------5|-5---s|------------------|
A|-5--7----|----7--5-|-------3-|-3----|-3--5----|----5--3-|-------1-|-1---|-5--7---|----7\|-------3--7--8-10-|
E|---------|---------|-3--5----|----5-|---------|---------|-1--3----|----3|--------|------|-3--5-------------|


--------------
01:47
  Well it's not as though he's fat
G|--------------------------------|
D|--------------------------------|
A|-----5-3------------------------|
E|-3-6-----6-5--------------------|

  No, there's more to it than that
G|--------------------------------|
D|-----8-7------------------------|
A|-5-8-----8-10-------------------|
E|--------------------------------|

  See he tried to play it cool
G|--------------------------------|
D|--------------------------------|
A|-----5-3------------------------|
E|-3-6-----6-5--------------------|

  Wouldn't be nobody's fool
G|--------------------------------|
D|-----8-7------------------------|
A|-5-8-----8-10-------------------|
E|--------------------------------|

01:59
G|-------------------|-------------------|-----------------|-----------------|
D|-------------------|-------------------|-----------------|-----------------|
A|-10----10----10----|-10----10----10----|-8---8---8---8---|-8---8---8---8---|
E|----10----10----10-|----10----10----10-|---8---8---8---8-|---8---8---8---8-|

02:06
G|--------------------|-----------|
D|--------------------|--s--------|
A|-10-8-6-5-----------|-3\8-------|
E|----------8-6-5-3-1-|---------8-|


--------------
02:13
Rudy thought that all good things comes to those that wait

02:24
G|-----s---10-----------------|
D|-8-10\12----12----8----8-10-|
A|---------------10---10------|
E|----------------------------|

But recently he could see that it may come but too late, too late, too late

G|-------|--------s---10-------|-------------10------------|
D|---s---|----8-10\12----12----|-8-10---s----------8-------|
A|-10\-8-|-10---------------10-|------10\-8-----10---------|
E|-------|---------------------|---------------------------|


--------------
02:43
SOLO
*****
G|-----------|------------|--------------|--------|-------|
D|-----s-----|-5--6--5----|--s----s------|--s-----|--s----|
A|----5\7--5-|----------5-|-5\7--5\3-5---|-5\7--5-|-7\----|
E|-5---------|------------|------------5-|--------|-----4-|X2



INTERLUDE
**********


04:02
Fades In With Guitar, And Funky kinda AD LIB
G|-------------|
D|-6-8--8--6-8-|
A|-------------|Play this 
E|-------------|   Continues till the small change 

04:45
G|----------------|
D|--------------6-|
A|---3-4-5-6--8---|continue above
E|-4--------------|   alternate between the 2


05:36   AD LIB             AD LIB
G|--h-------------|   |--h-------------|
D|-6-8-8-8--8-6-8-|   |-7-9-9-9--9-7-9-|
A|----------------|   |----------------| 
E|----------------|X4 |----------------|X3


05:59        s             s             s 
G|-------|-17\19-16----|-17\19-16----|-17\19-16---s-|
D|-------|----------19-|----------19-|----------19\-|
A|-7-7-7-|-------------|-------------|--------------|
E|-------|-------------|-------------|--------------|


06:06
G|---------------------|----------------------------|
D|---------------------|----------------------------|
A|-7--8--9--10--11--12-|-13--14--15--16--17--18--19-|
E|---------------------|----------------------------|



ENJOY.......

            
            
Suggest correction
Creating personal tab
Creating personal tab
You can edit any tab online and save it as your Personal.

You can edit, replace or remove any tab part or add personal notes – all changes will be seen only by you.

Personal tabs can be accessed anytime from any device, even offline.
Learn more »
comments
print report bad tab
guest
You may want to rate the tab now too:
select rating
Wanna post a correction for this tab? Suggest correction