Oops, an error
Loading. Please wait.

School Bass Tab

version 1
version 1

Whole song

Interactive

10,146 views 27 this week
3 commentsread comments
1 2 3 4 5
excellent!
x 4
add to favorites
launch autoscroll
font size
0
reset
guitar tuner
Tab Pro tools
  • play this tab
  • loop segment
  • change instrument
  • show fretboard
  • metronome
Autoscroll
slow
fast
+/-
esc
set tempo
stop
Contributor
Difficulty
intermediate
after school is over
G------------------------------------|
D------------------------------------|play
A------------------------------------|4 times
E--5-5--5-5--5-5--5-5----------------|

finish with
G----------|
D----------|
A----3\----|
E--5----0--|

2:54
G-------------           G----------------------------------|
D------5-7----play       D------5-7--7-7-------5-7--7-5-----|
A----7--------6 times    A----7--------------7----------7-5-|
E--5----------           E--5--------------5----------------|

Piano Solo  right on
G--------------------------------|
D--------------------5-----------|play
A-----3-5-7--3-5-7-7---7-5--3-2--|2 times
E-5-5----------------------------|

G-------2-----2--------------------|
D------2-5---2-5-5--2-5--3-2-0-----|
A----------------------------------|
E-5-5------------------------------|

G------2----2----2----------|
D-----2-5--2-5-5--5-3-5-6---|
A---------------------------|
E-5-5-----------------------|

G----5-4-----4-------5-4--7------------|
D-7-----5--5---7--7-----5---9-5-3-2-0--|
A--7--------7------7-------------------|
E--------------------------------------|

G--------------------------------|
D--------------------5-----------|play
A-----3-5-7--3-5-7-7---7-5--3-2--|2 times
E-5-5----------------------------|

G--------------------------------|
D--------------5-5---------------|play
A-----3-5-7-7------7-3-5-5--3-2--|3 times
E-5-5----------------------------|

G------2------2----------------|
D-----2-5-5--2-5-5--2-5-3-2-0--|
A------------------------------|
E-5-5--------------------------|

Don't do this!
G--------------------------------|
D--------------------------------|play
A-------------------------3--7\--|2 times
E---4-5-7--5-7-8---5--5--5-------|

G-------------------------9-99-9-9-|
D-----------------9-9-99-9---------|
A-7-7-77-7-5-77-7------------------|
E----------------------------------|

G---------------------------------|
D---------------------------------|
A-7-7-77-7-5-77-7--7-7-77-5-77-7--|
E---------------------------------|

Maybe Im mistaken      See it that way
G--------              G--------|
D--------              D--------|
A--------              A---3\---|
E-/5-5\--              E-5----0-|

G-----
D-----
A-----
E--5--
comments
print report bad tab
3 comments total.
0 reply
matt5112 wrote on October 24 2006, 09:37 pm

Don't do this!
G--------------------------------|
D--------------------------------|play
A-------------------------3--7\--|2 times
E---4-5-7--5-7-8---5--5--5-------|

i learned this by ear and wanted to compare it to something that someone else had tabbed and i found this part to be incorrect.

G--------------------------------|
D--------------------------------|play
A-------------------------5--7\--|2 times
E---0-2-3--5-7-8---5--5--5-------|

Try this out instead of what you posted and if it doesnt sound right just let me know

0 reply
keith940 wrote on October 11 2007, 04:29 pm

at 2:54 try this \
d-------7------7------7------7------7------7------7-7-7-----7-7
a--5-6-7--5-6-7--5-6-7--5-6-7--5-6-7--5-6-7--5-6-7-----5-6-7-----7-6-5

0 reply
cwilkes91 wrote on February 23 2014, 12:58 pm

Some things out of place. I uploaded another ver, just waiting for it to be accepted. This ver is a good starting point and will get you 95% of how this song goes.

I want to post or [tab]
guest
You may want to rate the tab now too:
select rating
Please do not post tabs as comments. Select "correction" instead!