Oops, an error
Loading. Please wait.

Take The Long Way Home bass

version 2
version 2

Whole song

Interactive

3,091 views 12 this week
3 commentsread comments
1 2 3 4 5
x 7
add to favorites
×
Save as Personal and add changes to this tab that will be seen only by you. Learn more ›
×
You can save this tab as Personal to edit and correct it or add notes. All changes will be seen only by you. Learn more »
launch autoscroll
font size
0
reset
guitar tuner
edit
Autoscroll
slow
fast
+/-
esc
set tempo
stop
Author
-----------------------------------------------------------------------------
                             TAKE THE LONG WAY HOME - Supertramp
        -----------------------------------------------------------------------------
Tabbed by: Joowinsky
E-mail: steveunknown@hotmail.com

Tuning: Standard EADG

Rest until 1:26 at "But there are times when you think..." then:
First Chorus
G|---------------------------------------------------|
D|2---2---3-5-7--7-5--5-3------3/8---8-7---3-4-5---2-|
A|---------------------------------------------------|
E|---------------------------------------------------|

G|---------------------5--------------------------|
D|2-5-7--7-5--5-3--3-7---3---3-5-7-8---8-7---3-4-5|
A|------------------------------------------------|
E|------------------------------------------------|

Verse
G|--------------------------------------------------------------------------|
D|--------------------------------------------------------------------------|
A|10\3---1-3-1-3---1-3---1-3-------3--3------3---3---1---3--3------3---3---1|
E|--------------------------------------3--3-------3----------3--3-------3--|

G|----------------------------------------------------------------------|
D|----------------------------------------------------------------------|
A|3---1-3-1-3---1-3---1-3-1-3---3--3-----3-3-3---1---3--3------3-3-3-3-5|
E|-----------------------------------3--3------3----------3--3----------|

Chorus
G|-----------------------------------5----------------------------------|
D|14--12-10-2---3-5-7--7-5--5-3--3-7---3---3-5-7-8---8-7---3-4-5---0-1-2|
A|----------------------------------------------------------------------|
E|----------------------------------------------------------------------|

G|-----------------------------------------------|
D|2-5-7--7-5--5-3--------------------------------|
A|-----------------3-0-3---------0-1--1-0--------|
E|-----------------------1---1-3-----------1-2-3-|

Instrumental
G|-----------------------------------|
D|-----------------------------------|
A|--5-6------0-1---0-1-2-------0-2-3-|
E|-----------------------1---1-------|

G|-----------------------------------------|
D|-----------------------------------------|
A|3--3------3-3-3---1---3--3------3-3-3---1|
E|-----3--3-------3----------3--3-------3--|

G|-----------------------------------|
D|-----------------------------------|
A|3-5-6------0-1---0-1-2-------0-2-3-|
E|-------1-3-------------1---1-------|

G|-----------------------------------------|
D|-----------------------------------------|
A|3--3------3-3-3---1---3--3------3-3-3-3-5|
E|-----3--3-------3----------3--3----------|

Chorus
G|-----------------------------------5----------------------------------|
D|14--12-10-2---3-5-7--7-5--5-3--3-7---3---3-5-7-8---8-7---3-4-5---0-1-2|
A|----------------------------------------------------------------------|
E|----------------------------------------------------------------------|

G|-----------------------------------------------|
D|2-5-7--7-5--5-3--------------------------------|
A|-----------------3-0-3---------0-1--1-0--------|
E|-----------------------1---1-3-----------1-2-3-|

Final Verse
G|---------------------------|
D|---------------------------|
A|3---1-3-1-3---1-3---1-3-1-3|
E|---------------------------|

G|------------------|
D|------------------|
A|3--3-----3-3-3---1| x8
E|-----3--3------3--|

Outro
G|-------------------------10p9\5-------------------|
D|-------10-------------10------------------10------|
A|3/15------10-------10--------------3/15------10---|
E|-------------8----------------------------------8-|


| /  slide up
| \  slide down
| h  hammer-on
| p  pull-off
| ~  vibrato
| +  harmonic
| x  Mute note
===============================================================================

            
            
Suggest correction
Creating personal tab
Creating personal tab
You can edit any tab online and save it as your Personal.

You can edit, replace or remove any tab part or add personal notes – all changes will be seen only by you.

Personal tabs can be accessed anytime from any device, even offline.
Learn more »
comments
print report bad tab
3 comments total.
+1 reply
ayreon77 21,833 May 14, 2016 02:21 AM

pretty nice bass tab, quiet a difficult tab, Excellent

0 reply
dariokiper 10 Dec 01, 2016 03:24 PM

hell yeahhh

0 reply
DaRito 41 Mar 16, 2017 09:34 PM

Jumps around on the same string too much.

guest
You may want to rate the tab now too:
select rating
Wanna post a correction for this tab? Suggest correction