Oops, an error
Loading. Please wait.

The Logical Song Bass Tab

version 2
version 2

Whole song

Interactive

10,563 views 15 this week
no commentswrite comment
1 2 3 4 5
x 6
add to favorites
launch autoscroll
font size
0
reset
guitar tuner
Autoscroll
slow
fast
+/-
esc
set tempo
stop
Help us to improve Ultimate-Guitar.com Take our survey!
×
Author
Difficulty
novice
Tabbed by: RageNate
e-mail (for comments or corrections): hollow.nate@gmail.com

Intro
G|-----------------|
D|-----------------|
A|------8/(10)/13\-|x4
E|-----------------|

Verse 1
G|-------------|-------------|-------------|-------------|-------------|
D|-------------|-------------|-------------|-------------|-------------|
A|-------------|-------------|-------------|-------------|-------------|x2
E|-------------|-------------|-------------|-------------|-------------|

Verse 2
G|-------------|-------------|-------------|-------------|-------------|
D|-------------|-------------|-------------|-------------|-------------|
A|-3---3-3-----|-------------|-------------|-------------|-------------|
E|-----------6-|-4---4-3---3-|-3----6----6-|-6---6-4---4-|-5---5-5-----|

G|-------------|-------------|-------------|-------------|-------------------|
D|-------------|-------------|-------------|-------------|-------------------|
A|-3---3-3-----|-------------|-------------|-------------|-------------------|
E|-----------6-|-4---4-3---3-|-3----6----6-|-6---6-4---4-|-5---5-5---5---5-5-|

Chorus
G|-------------|-------------|     -------------|-------------|
D|-------------|-------------|     -------------|-------------|
A|-6-6---------|-6-6---------|x3   -4-----3-----|-------------|
E|--------6h8--|-------------|     -------------|-6-----4-----|

G|-------------|-------------|     -------------|-------------|-------------|-----------|
D|-------------|-------------|     -------------|-------------|-------------|-----------|
A|-6-6---------|-6-6---------|x3   -4-----3-----|-------------|-4-----3-----|-----------|
E|--------6h8--|-------------|     -----------6-|---4----6--8-|-----------6-|---4-------|

Verse 3
G|-------------|-------------|-------------|-------------|-------------|
D|-------------|-------------|-------------|-------------|-------------|
A|-3---3-3-----|-------------|-------------|-------------|-------------|
E|-----------6-|-4---4-3---3-|-3----6----6-|-6---6-4---4-|-5---5-5-----|

G|-------------|-------------|-------------|-------------|-------------|----------------|
D|-------------|-------------|-------------|-------------|-------------|----------------|
A|-3---3-3-----|-------------|-------------|-------------|----------3--|-(3)-6---(6)-5--|
E|-----------6-|-4---4-3---3-|-3----6----6-|-6---6-4---4-|-5----(5)----|----------------|

Sax Solo I
G|---5---------|-------------|-------------|-------------|-------------|
D|-5---5-------|-------------|-------------|-------------|-------------|
A|-------6-3---|-------------|-------------|-------------|-------------|
E|-----------6-|-4---4-3---3-|-3----6----6-|-6---6-4---4-|-5---5-5-----|

G|-------------|-------------|-------------|-------------|-------------|------------|
D|-------------|-------------|-------------|-------------|-------------|------------|
A|-3---3-3-----|-------------|-------------|-------------|-------------|--------3---|
E|-----------6-|-4---4-3---3-|-3----6----6-|-6---6-4---4-|-5---5-5---5-|-5----5-----|

Chorus
G|-------------|-------------|     -------------|-------------|
D|-------------|-------------|     -------------|-------------|
A|-6-6---------|-6-6---------|x3   -4-----3-----|-------------|
E|--------6h8--|-------------|     -------------|-6-----4-----|

G|-------------|-------------|     -------------|-------------|   
D|-------------|-------------|     -------------|-------------|
A|-6-6---------|-6-6---------|x3   -4-----3-----|-------------|x3
E|--------6h8--|-------------|     -----------6-|---4----6--8-|

G|-------------|-------------|
D|-------------|-------------|
A|-4-----3-----|-------------|
E|-----------6-|---4---------|

Outro/Sax Solo II (Repeat till fade)
G|--------------------------------|----------------------------------|
D|---------10------10---13-14-----|---------10-----------------------|
A|--/10-13------13------------13--|-/10-13---------10-9-8------------|
E|--------------------------------|----------------------------------| 
									
G|--------------------------------|-------------------------------------|
D|---------10------10---13-14-----|---------10--------------------------| 
A|--/10-13------13------------13--|--/10-13-------10-9-8----6-(6-6)-11--|
E|--------------------------------|-------------------------------------|
Suggest correction
comments
print report bad tab
guest
You may want to rate the tab now too:
select rating
Wanna post a correction for this tab? Suggest correction