Oops, an error
Loading. Please wait.

Campeon Mundial Tab

16 views 1 this week
no commentswrite comment
1 2 3 4 5
3 more votes to show rating
add to favorites
×
Save as Personal and add changes to this tab that will be seen only by you. Learn more ›
×
You can save this tab as Personal to edit and correct it or add notes. All changes will be seen only by you. Learn more »
save as personal
new!
launch autoscroll
font size
0
reset
how to read this tab
guitar tuner
Autoscroll
slow
fast
+/-
esc
set tempo
stop
NOTA: Todos los acordes son quintas.

INTRO: A D A E A D A E A


 A             D
Ya pasamos la zona
    A                 E
Y ahora vienen los octavos de final
     A                   D
Despues entramos a los cuartos semi
    A      E          A
Y ahora jugamos la final

             A                D
Campeon mundial, compeon mundial
             A                E
Campeon mundial, campeon mundial
             A                D
Campeon mundial, campeon mundial
             A        E       A
Campeon mundial, campeon mundial

     A            D
Despues de 120 minutos
     A              E
Por fin pudimos vencer al rival
    A               D
Quedaron seis lesionados pero
  A      E          A
Ahora podemos festejar

         A                D
Campeon mundial, compeon mundial
             A                E
Campeon mundial, campeon mundial
             A                D
Campeon mundial, campeon mundial
             A        E       A
Campeon mundial, campeon mundial


SOLO:
       A                 D
e|-------------------------------------|
B|-------------------------------------|
G|-7-9-------------------7-7-7-7-7-7-7-|
D|-----7-7-7-7-7-7-7-7-9---------------|
A|-------------------------------------|
E|-------------------------------------|

       A                     E
e|---------------------------------------------|
G|---------------------------------------------|
G|-7-9---------------------7-9-9-9-9-9-9-9-9-9-|
D|-----7-7-7-7-7-7-7-7-7-9---------------------|
A|---------------------------------------------|
E|---------------------------------------------|


       A                 D
e|-------------------------------------|
B|-------------------------------------|
G|-7-9-------------------7-7-7-7-7-7-7-|
D|-----7-7-7-7-7-7-7-7-9---------------|
A|-------------------------------------|
E|-------------------------------------|

       A         E       A
e|-------------------------|
B|-------------------------|
G|-7-9-----------9-9-7-9---|
D|-----7-7-7-7-7---------7-|
A|-------------------------|
E|-------------------------|


 A             D
Ya pasamos la zona
    A                 E
Y ahora vienen los octavos de final
     A                   D
Despues entramos a los cuartos semi
    A      E          A
Y ahora jugamos la final

             A                D
Campeon mundial, compeon mundial
             A                E
Campeon mundial, campeon mundial
             A                D
Campeon mundial, campeon mundial
             A        E       A
Campeon mundial, campeon mundial

     A            D
Despues de 120 minutos
     A              E
Por fin pudimos vencer al rival
    A               D
Quedaron seis lesionados pero
  A      E          A
Ahora podemos festejar

         A                D
Campeon mundial, compeon mundial
             A                E
Campeon mundial, campeon mundial
             A                D
Campeon mundial, campeon mundial
             A        E       A
Campeon mundial, campeon mundial
             A        E       A
Campeon mundial, campeon mundial
             A        E       A
Campeon mundial, campeon mundial


Ezo es todo, larga vida al punk rock!!!
Komentarios, sugerenzias o petizionez al correo
chonitoramone_sk8punk@
Suggest correction
Give kudos to tab author, rate the tab!
1 2 3 4 5
comments
print report bad tab
guest
Wanna post a correction for this tab? Suggest correction