Oops, an error
Loading. Please wait.

Dale Batero Tab

version 1
version 1

Whole song

41 views 1 this week
no commentswrite comment
1 2 3 4 5
3 more votes to show rating
add to favorites
launch autoscroll
font size
0
reset
how to read this tab
guitar tuner
×
Best way to learn
"Dale Batero"
Autoscroll
slow
fast
+/-
esc
set tempo
stop
ACORDES:

G C D

INTRO


E------------------------------------
B------------------------------------
G------------------------------------
D--------------2-3/5---4--5/7--5-----
A--------3-5-3-------5---------------
E----3-5-----------------------------

E------------------------------------
B--------------5-8---7-10-8----------
G-----4-5/7--5-----7-----------------
D-5-7--------------------------------
A------------------------------------
E------------------------------------


riff 1

E--8-7-------------------------------
B------8-5h8-8--4/5------------------
G-------------------7----------------
D------------------------------------
A------------------------------------
E------------------------------------

                               riff 1
Me quede calvo, es un bajon pero no importa
pero cantarte esta cancion si que a mi me importa
G              C               D
un dia prometi hacerte una cancion
G           C       D
escuchala es para vos


G               C               D
este estribillo parece que esta bueno
G           C              D
dale batero marca que nos perdemos
G                C         D
nunca quisimos desafinar asi
G
el one two three four
C         D
dejamelo a mi

bueno querida que te parecio el estribillo
es lo mejor que me ha salido hoy
yo te queria escribir una balada
y me ves cantando esta cancion

este estribillo parece que esta bueno
dale batero marca que nos perdemos
nunca quisimos desafinar asi
el one two three four
dejamelo a mi

one two three, one two three four

A                D              E
este estribillo parece que esta bueno
A           D                E
dale batero marca que nos perdemos
A                D        E
nunca quisimos desafinar asi
A
y el one two three four
D          E
dejamelo a mi
Suggest correction
Give kudos to tab author, rate the tab!
1 2 3 4 5
comments
print report bad tab
guest
You may want to rate the tab now too:
select rating
Wanna post a correction for this tab? Suggest correction