Oops, an error
Loading. Please wait.

Sensacional Tab

16 views 1 this week
no commentswrite comment
1 2 3 4 5
3 more votes to show rating
add to favorites
launch autoscroll
font size
0
reset
how to read this tab
guitar tuner
Autoscroll
slow
fast
+/-
esc
set tempo
stop
intro: B G# A B
         G# A B X3


1------------------------------
2------------------------------
3---7/9-9-9-9-9-9-9-9-9-9-9-9-9

1------------------------------
2------------------------------
3---7/9-9-9-7-7-5-5-5-5-7-7-7-9

B                      G#      A    B
de yusgoslavia vengo y muy contento estoy
alla hace frio pero aqui hace calor
jugando al tenis soy muy feliz
porque yo soy asi si si si si

los pelotazos y navajas no hacen mal
porq yo ahora tenga, tengo un restaurant
con mi raquetas con tus pelotas
con mi chuletas yo soy tan...

B           G# A
sensacional uo waaaaa....


         B G# A B
         G# A B X3


1------------------------------
2------------------------------
3---7/9-9-9-9-9-9-9-9-9-9-9-9-9

1------------------------------
2------------------------------
3---7/9-9-9-7-7-5-5-5-5-7-7-7-9


caminando por el micro centro voy
porq yo veo siempre mucho un team boys
jugando badminton porque el raton
piola andaria yo en hawai

mejor en la vida q haria q jugar
q pasaria si no puedo mas jugar
si viene el loko de la navaja
esta vez no me va a pillar...


sensasional....


inter: D# C# D# C# D#
       D# C# D# C# E


1------------------------------
2------------------------------
3---7/9-9-9-9-9-9-9-9-9-9-9-9-9

1-------------------5-5-7-7-9-12
2-------------------------------
3---7/9-9-9-7-7-5-5-------------


de yusgoslavia vengo y muy contento estoy
alla hace frio pero aqui hace calor
jugando al tenis soy muy feliz
porque yo soy asi si si si si

los pelotazos y navajas no hacen mal
porq yo ahora tenga, tengo un restaurant
con mi raquetas con tus pelotas
con mi chuletas chutela y guitarra...


sensacional....


retoma: D# C# B C#


si no ta pal ojete le pasa raspando....
saludos hice si menor esfuerzo....
CUALQUIER COSITA "SAQUELAN USTED MANGA DE VAGOS!!!"


q viva el punk....


----------------------
-----leito_punk-------
----------------------
Suggest correction
Give kudos to tab author, rate the tab!
1 2 3 4 5
comments
print report bad tab
guest
You may want to rate the tab now too:
select rating
Wanna post a correction for this tab? Suggest correction