Oops, an error
Loading. Please wait.

Calles Humedas Tab

by Sur 16
63 views 1 this week
no commentswrite comment
1 2 3 4 5
3 more votes to show rating
add to favorites
launch autoscroll
font size
0
reset
how to read this tab
guitar tuner
×
Best way to learn
"Calles Humedas"
Autoscroll
slow
fast
+/-
esc
set tempo
stop
intro 

1--0- ---2--3-2---------- ---------------------------
2-0-- -5-------5-3-3b5p3- ---------------------------
3---- ------------------- -2-4-4/5-4-2-0-4/5-5--4----
4---- ------------------- ------------------------5--
5---- ------------------- ---------------------------
6---- ------------------- ---------------------------

1------------- ---------------------0--
2------------- ---------------------0--
3------------- -------4-2--0b2p0----0--
4-5-4-------2- -5-4-----------------2--
5-----5-5-5--- -----5---------------2--
6------------- ---------------------0--

(solo de guitarra)

1-12-12--12-14/15-14-12-10---------- -----------------------------
2-------------------------10b12p10- -10-12-12/13-12-10-8-13--12---
3--------------------------------- ----------------------------12-
4--------------------------------- -------------------------------
5--------------------------------- -------------------------------
6--------------------------------- -------------------------------

1-----------------------------------------------------------------
2------------------------10/12--12-10-8-10-87--8p7---------------
3-12-11-------------11-9----------------------------9p7---9-------
4------12-10-12--10-------------------------------------9-----9---
5-----------------------------------------------------------------
6-----------------------------------------------------------------

1---------------- ------------------  -----------------------
2------------7-8- ------------------ ----------10--8--10/13--
3--------7-9----- -7b9-9-9--9-9-8-7- ---7-9/11---------------
4-7b9-10--------- ------------------ -9----------------------
5---------------- -------------------------------------------
6---------------- -------------------------------------------

1---------------------------------------------------------------
2-12-10-8-7-----------------------------------------------------
3-----------9-9-7--9/12-12-11---11-11-11/12--12-12-12-11-9-8--9-
4---------------------------------------------------------------
5---------------------------------------------------------------
6---------------------------------------------------------------

1------------------0-----
2------------------0-----
3------------------0-----
4-2-2-2-4-4-4-5----2-----
5------------------2-----

bueno banda disculpen la tardansa de el intro y el solo de esta
rola cualquier duda sobre la tab escribanme chido banda
en el requinto tienen que meterle un buen filin para que salga chido
Suggest correction
Give kudos to tab author, rate the tab!
1 2 3 4 5
comments
print report bad tab
guest
You may want to rate the tab now too:
select rating
Wanna post a correction for this tab? Suggest correction