Oops, an error
Loading. Please wait.

Cierra Tus Ojos Bass Tab

17 views 1 this week
no commentswrite comment
1 2 3 4 5
3 more votes to show rating
add to favorites
launch autoscroll
font size
0
reset
guitar tuner
×
Best way to learn
"Cierra Tus Ojos"
Autoscroll
slow
fast
+/-
esc
set tempo
stop
INTRO (y casi toda la cancion pues se repite):


ESTO ESTA EN G                
G++

G--------------------     LO REPITES 4 VECES
D------5-5--3-3------
A----------------5-5-
E--3-3---------------

Y DESPUES: ESTÁ EN  C

C++

G------5-5--3-3-------    LO REPITES 2 VECES
D----------------5-5--
A--3-3----------------
E---------------------


Y DESPUES: ESTÁ EN  G

G++

G----------------------  LO REPITES 2 VECES 
D------5-5--3-3--------
A----------------5-5---
E--3-3-----------------

Y DESPUES: ESTÁ EN  D
 
D++

G------7-7--5-5-------     SÓLO UNA VEZ 
D---------------------
A--5-5-----------7-7--
E---------------------


Y DESPUES: ESTÁ EN C

C++

G------5-5--3-3-------
D---------------------
A--3-3-----------5-5--
E---------------------


DESPUES TOCAS ESTO AL RITMO DE LA MÚSICA:


G----------------------------------
D----------------------------------
A-----2-2-3-3-4-4-5-----3-4-5------
E-3-3------------------------------


EL ÚNICO CAMBIO LO HACES EN G++ 

 
 G++
 HAY COSAS EN LA VIDA
 
 QUE NUNCA OLVIDARÁS

 TU MÁGICA SONRISA
            D/D#/E/F/F#G  
 SE FUE EN LA OBSCURIDAD

 SI LA TOCAS EN ACORDE ES: ++.  

  NOTA: TIENES QUE ESCUCHAR LA ROLA.

''''''''''''''''''''''''''''''''''''''''''''''''''
'     ESTE BAJEO ES DE LOS GRANDES DEL BLUES     '
'''''''''''''''''''''''''''''''''''''''''''''''''' 
                                                :-)

                                            CHIDO.
Suggest correction
Give kudos to tab author, rate the tab!
1 2 3 4 5
comments
print report bad tab
guest
You may want to rate the tab now too:
select rating
Wanna post a correction for this tab? Suggest correction