Oops, an error
Loading. Please wait.

Cristo Viejo Tab

by Sur 16
195 views 12 this week
no commentswrite comment
1 2 3 4 5
3 more votes to show rating
add to favorites
launch autoscroll
font size
0
reset
how to read this tab
guitar tuner
Autoscroll
slow
fast
+/-
esc
set tempo
stop
Una chida canción de parte de drenaje profundo, no acepto comentarios
ni sugerencias, si está bien o está mal chingue a su madre ahí se va
 y que chingue a su madre Jesucristo y todos los que creen en él.


Intro:

---------------------------------------------------------------------|
-----------0------1------3-------1-------0-------1--------3----------|
-------2------2------2-------2-------2-------2------2---------2------|
---------------------------------------------------------------------|
---------------------------------------------------------------------|
---------------------------------------------------------------------|

---------------------------------------------------------------------|
-----6--5?-6--5?-6----5---5h6-5---3~~~~~~~~--(3)/5~~~--3--5--3-3/5~~~|
---------------------------------------------------------------------|
-----0---------------------------------------------------------------|
-------------------------------------------------3-------------------|
---------------------------------------3-----------------------------|


---------------------------------------------------------------------|
-----3----3h5--3-----1~~~---0---1----3---1---3---1---3---1---3----1--|
---------------------------------------------------------------------|
-------------------------------------2~~~~~~~~~~~~~~~~~~~~~~~~~~-----|
---------------------0~~~~~~~~~--------------------------------------|
---------------------------------------------------------------------|


---------------------------------------------------------------------|
---0h1p0-0-----3/5--3-1-0-------0---1----3-----1-----0---------------|
---------------------------2------2----2----2-----2----2-------------|
------------------------------2--------------------------------------|
---------------------------------------------------------------------|
---0-----------------------------------------------------------------|


Aquí estoy

Ante ti mi Cristo viejo

Para ver si tú me haces el milagro

De borrarla, para siempre de mi mente

Pues no quiero que me siga haciendo daño.


Yo que siempre le di mi amor sincero

No logro soportar su indiferencia

Y es por eso, que ante ti mi Cristo viejo

He venido a contarte de mi pena.

Dime Cristo viejo por favor

Como hacer que pague su traición

Y es que muy herido me quedé, al saber que se burló de mi.

Dime Cristo viejo por favor

Como hacer que pague su traición

Por que no le voy a perdonar, que tan solo, jugara con mi amor.


Solo I:


----------------------------------------------------|
----------------------------------------------------|
----------------------------------------------------|
----------------------------------------------------|
--8?55?7-55?-8?55?7?55?-8-55?7-55--8-55-7?55/7------|
----------------------------------------------------|

----------------------------------------------------|
----------------------------------------------------|
----------------------------------------------------|
----------------------------------------------------|
--10-77-8-77--10-77-8-77--10-77-8?77--10-77-8?77/8--|
----------------------------------------------------|

---------------------------------------------------------|
---------------------------------------------------------|
---------------------------------------------------------|
---------------------------------------------------------|
--12-88-10-88--12-88-10-88--12-88-10-88--12-88-10-880---|
---------------------------------------------------------|


----------------------------------------------|
----------------------------------------------|
----------------------------------------------|
----------------------------------------------|
--3-00-2-00--3-00-2-00--3-00-2-00--3-00-2-00--|
----------------------------------------------|


---------------------------------------------------|
---------------------------------------------------|
---------------------------------------------------|
---------------------------------------------------|
--8-55-7-55--8-55-7-55--8-55-7-55--8-55-7-55/7-----|
---------------------------------------------------|


---------------------------------------------------------------------|
---------------------------------------------------------------------|
---------------------------------------------------------------------|
---------------------------------------------------------------------|
--10-77-8-77--10-77-8-77--10-77-8-77--10-8-7-8-7-5-7-5---5-----------|
-------------------------------------------------------8---8-7-5~~~~-|


---------------------------------------------------------------------|
---------------------------------------------------------------------|
--/10~-9-10-9-9/10-9-9h10p9-9-7~~~~~(7)-7-5---5?7/9------------------|
--------------------------------------------7------------------------|
---------------------------------------------------------------------|
---------------------------------------------------------------------|


------------------------------------------------|
------------------------------------------------|
--9-7-9-7-7/9-7-9-75~~~~--4/5------------------|
------------------------------------------------|
------------------------------------------------|
------------------------------------------------|


----------------------------------------------------------------|
----------------------------------------------------------------|
--7-5-7-5-5h7-5-5h7-5-4h5p4-5-5-5-5h7-5-4-----------------------|
----------------------------------------------7~~~~~~~~---------|
----------------------------------------------------------------|
----------------------------------------------------------------|


Yo que siempre le di mi amor sincero

No logro soportar su indiferencia

Y es por eso que ante ti mi Cristo viejo

He venido a contarte de mi pena.


Dime Cristo viejo por favor, como hacer que pague su traición

Y es que muy herido me quedé, al saber que se burló de mi.

Dime Cristo viejo por favor, como hacer que pague su traición

Por que no le voy a perdonar, que tan solo jugara con mi amor


Solo II:


---------------------------------------------------------------------|
---------------------------------------------------------------------|
--5-22-4-22--5-22-4-22--5-22-4-22--5-22-4-22/4-----------------------|
---------------------------------------------------------------------|
---------------------------------------------------------------------|
---------------------------------------------------------------------|

---------------------------------------------------------------------|
---------------------------------------------------------------------|
--7-44-5-44--7-44-5-44--7-44-5-44-7-44-5-44/5------------------------|
---------------------------------------------------------------------|
---------------------------------------------------------------------|
---------------------------------------------------------------------|


---------------------------------------------------------------------|
---------------------------------------------------------------------|
--9-55-7-55--9-55-7-55--9-55-7-55--9-55-7-55/2-----------------------|
---------------------------------------------------------------------|
---------------------------------------------------------------------|
---------------------------------------------------------------------|


---------------------------------------------------------------------|
---------------------------------------------------------------------|
--5-22-4-22--5-22-4-55--5-22-4-22-5-22-4-22/4------------------------|
---------------------------------------------------------------------|
---------------------------------------------------------------------|
---------------------------------------------------------------------|


---------------------------------------------------------------------|
---------------------------------------------------------------------|
--7-44-5-44--7-44-5-44--7-44-5-44-7-44-5-44/5------------------------|
---------------------------------------------------------------------|
---------------------------------------------------------------------|
---------------------------------------------------------------------|


---------------------------------------------------------------------|
---------------------------------------------------------------------|
--9-55-7-55--9-55-7-55---7--5?4h5p4-4--------------------------------|
------------------------------------------7~~~~~---------------------|
---------------------------------------------------------------------|
---------------------------------------------------------------------|


---------------------------------------------------------------------|
---------------------------------------------------------------------|
--/10-9-10-9-9h10-9-9h10-9?--7~~~(7)b(8)rb(7)------------------------|
---------------------------------------------------------------------|
---------------------------------------------------------------------|
---------------------------------------------------------------------|


---------------------------------------------------------------------|
---------------------------------------------------------------------|
--/9-7-9-7-7/9-7-9-7-5~~~~~~~--4-5~(5)/7-7-5-7-5-7-5-7-5-4h5p4-4-----|
---------------------------------------------------------------------|
---------------------------------------------------------------------|
---------------------------------------------------------------------|


----------------5~~~~~--8-7-5-----------------8-7-5------------------|
--------------------------------8?6h8p6p5-5----------8-6h8p6p5-5~~~~-|
--4-5-4--------------------------------------------------------------|
---------7--5--------------------------------------------------------|
---------------------------------------------------------------------|
---------------------------------------------------------------------|


Simbología:

h  Hammer on
p  Pull off
b  bend
r  release bend
/  slide up
  slide down
~  let ring

Ahí esta mi tab, bien mamila, me costó un huevo transcribir,
espero que les guste, me remito a la letra y los requintos puesto q
ya estan los acordes en el otro tab, intenté anotar todos los detalles
 que me fuese posible poner, y si me falta alguno, pues métanselo por
el culo. No, no es cierto.
Sugerencias, comentarios, amenazas de muerte  a Shell-ooo@hot,
Suggest correction
Give kudos to tab author, rate the tab!
1 2 3 4 5
comments
print report bad tab
guest
Wanna post a correction for this tab? Suggest correction