Oops, an error
Loading. Please wait.

Cuando Vuelva El Invierno Tab

version 1
version 1

Whole song

22 views 1 this week
no commentswrite comment
1 2 3 4 5
3 more votes to show rating
add to favorites
launch autoscroll
font size
0
reset
how to read this tab
guitar tuner
×
Best way to learn
"Cuando Vuelva El Invierno"
Autoscroll
slow
fast
+/-
esc
set tempo
stop
Este es el intro de la cancion

e-12~--12-12-10-9----9-9~--9-9----------------------9--
B-----------------12-----------12-10-9h10p9--10-9-12---
G------------------------------------------------------
D------------------------------------------------------
A------------------------------------------------------
E------------------------------------------------------

e-9-10-12-10-9---9-------------------------------------
B--------------12-12--10-9-10~~~-----------------------


Esto es el solo de enmedio  Tambien lo pueden usar en 
la parte de la armonica se oye bien.


e-12-12-12--12-12-10-9----9-9~--9-9-------------------
B----------------------12-----------12-10-9h10p9--10-9

e----9-10-12-10-9-10p9-------------------------------
B-12------------------12-10~~~9~~~~--------------

e---------------------------------------5-7-5b---5-----
B----------------5-6-7-7--8-6-5-8-6-5-8--------8---8---
G-5/6/5-5-6-5-7----------------------------------------

e-5-7-7/8--9-9-10-12-10-9--------9-12~~~~~~~----------
B--------------------------12-10----------------------

Esto es el final

e------------------------------------------------------
B------------------------------------------------------
G-14-14--13-13--11-11----------------------------------
D---------------------14-14-12-12---14-12-11-9-7-------
Suggest correction
Give kudos to tab author, rate the tab!
1 2 3 4 5
comments
print report bad tab
guest
You may want to rate the tab now too:
select rating
Wanna post a correction for this tab? Suggest correction