Oops, an error
Loading. Please wait.

Cuando Vuelva El Invierno Tab

version 2
version 2

Whole song

6 views 1 this week
no commentswrite comment
1 2 3 4 5
3 more votes to show rating
add to favorites
launch autoscroll
font size
0
reset
how to read this tab
guitar tuner
×
Best way to learn
"Cuando Vuelva El Invierno"
Autoscroll
slow
fast
+/-
esc
set tempo
stop
INTRO: A, E, F#m, D, A, E, A, E

-1Oh-12-12-12-12-12-10----------------------------------------------------------------------12-------------10-12-
-----------------------14-12-12-12-12-14-14-14-14-14-15-14-12----12-14-14-14-14-14-14-15-14----15-14-12-10-10-12-
--------------------------------------------------------------14-------------------------------------------------                                      -
-----------------------------------------------------------------------------------------------------------------
-----------------------------------------------------------------------------------------------------------------
-----------------------------------------------------------------------------------------------------------------

-REQUINTO: (LO MISMO DE ARRIBA Y DESPUES ESTO)


-------------------------------------------------------9----------------9-9-9-9-9-10-9-12-10-9-------10-12-
------------------------------10-------10-------10-12----12-10----10-12------------------------12-10-10-12-
--------------------9-9-9h-11----9h-11----9h-11----------------11------------------------------------------
-11-11-11-9----9-11----------------------------------------------------------------------------------------
------------12---------------------------------------------------------------------------------------------
-----------------------------------------------------------------------------------------------------------

BUENO PUES ESTE ES EL SOLO Y REQUINTO DE ESTA BUENA ROLA, ESPERO LES GUSTE.

Y QUIERO MANDAR MUCHOS BESOS A ELIZABETH MARTINEZ PIEDRAS DEL BACHILLERES 3, 
TE QUIERE Y EXTRAÑA MUCHO ESTE LOCO ENAMORADO.
AH Y AL BACHILLERES 3, MATUTINO.
DUDAS A danielcvmp@
Suggest correction
Give kudos to tab author, rate the tab!
1 2 3 4 5
comments
print report bad tab
guest
You may want to rate the tab now too:
select rating
Wanna post a correction for this tab? Suggest correction