Oops, an error
Loading. Please wait.

Ella O El Bass Tab

25 views 1 this week
no commentswrite comment
1 2 3 4 5
3 more votes to show rating
add to favorites
launch autoscroll
font size
0
reset
guitar tuner
×
Best way to learn
"Ella O El"
Autoscroll
slow
fast
+/-
esc
set tempo
stop
BUENO BANDA ESTA ROLA YA TIENE RATO QUE ME LA PIDIERON PERO NO LA
HABIA PODIDO SUBIR  AVER QUE TAL SUENA

LEYENDA DE LAS NOTAS:

 H   - HAMMER-ON
 p   - PULL-OFF
 /  - SLIDE
 |  - COMPAS
||  - DOBLE COMPAS
||o - ES DONDE VA A COMENZAR CUANDO ALGO SE VA A REPETIR
o|| - ES DONDE VA A TERMINAR CUANDO ALGO SE VA A REPETIR


INTRO
G------7H9P7---7H9-9--7H9P7---5-5-----5-7-7-----7-9-9-
D------------9--------------9-----5-7-------7-9------- REPITES X4
A-----------------------------------------------------
E-----------------------------------------------------

G------------------------------------------------------
D------------------------------------------------------
A---7-7-7-7-7-7--3-3-3-3-3-3--5-5-5-5-5-5--7-7-7-7-7-7-
E------------------------------------------------------

G-------------------------------
D-------------------------------
A---7-7-7-7-7-7--3-3-3-3-3-3--5-
E-------------------------------

G-||--7H9-9-7-9-7----||--
D-||o-------------9-o||-- REPITES X4
A-||o---------------o||--
E-||-----------------||--

  VERSO
G---------------------------------------------------------
D---------------------------------------------------------
A---7-5---7-7-5--7-7-5--7-7-5---3-2---3-3-2--3-3-2--3-3-2-
E-------7---------------------------3---------------------


G-----------------------------------------9-7-9-7-9-7-9-
D-------------------------------------------------------
A---5-5-3-5-5-3-5-5-3-5-5-3---7-5---7-7-5---------------
E---------------------------------7---------------------

G-------------------------------------------------------
D-------------------------------------------------------
A---7-5---7-7-5--7-5---7-7-5---3-2--3-3-2--3-3-2--3-3-2-
E-------7------------7-------------3--------------------

G-------------------------------------------------------
D-------------------------------------------------------
A---5-5-3-5-5-3-5-5-3-5-5-3---7-5---7-7-5--7-7-7-5------
E---------------------------------7---------------------

     CORO
G-||-----------------------------------------------------
D-||o----------------------------------------------------
A-||o--3-3-3-3-3-3-3-3--5-5-5-5-5-5-5-5--7-7-7-7-7-7-7-7-
E-||-----------------------------------------------------

G--------------------||--
D-------------------o||-- PEPETIR X3
A---7-7-7-7-7-7-7-5-o||--
E--------------------||--

G-----------------------
D-----------------------
A---3-3-3-3-3-3-3-3---5-
E-----------------------

G-||--7H9-9-7-9-7----||--
D-||o-------------9-o||-- REPITES X2
A-||o---------------o||--
E-||-----------------||--

  REQUINTO
G---------------------------------7H9P7---7H9-9--7H9P7-
D---------------------------------------9--------------
A---3-3-----3-5-5-----5--7-7-5-7-----------------------
E-------3-5-------5-7----------------------------------

G----------------------------------
D----------------------------------
A---3-3-----3-5-5-----5--7-7-5-7-7-
E-------3-5-------5-7--------------

G---9P7--9P7--9P7--9P7--9P7--9P7--
D------9----9----9----9----9----9-
A---------------------------------
E---------------------------------

G---5P4--5P4--5P4---7P5--7P5--P5--
D------5----5----5-----7----7---7-
A---------------------------------
E---------------------------------

G---9P7--9P7--9P7--9P7--9P7--9P7--
D------9----9----9----9----9----9-
A---------------------------------
E---------------------------------

G---5P4--5P4--5P4--7-
D------5----5----5---
A--------------------
E--------------------

G-||--7H9-9-7-9-7----||--
D-||o-------------9-o||-- REPITES X4
A-||o---------------o||--
E-||-----------------||--

G-||------------------------------------------------------
D-||o------------------------------------------------------
A-||o--7-5---7-7-5--7-5---7-7-5---3-2--3-3-2--3-3-2--3-3-2-
E-||------7------------7-------------3--------------------

G--------------------------------------------------------||
D-------------------------------------------------------o|| REPITE X3
A---5-5-3-5-5-3-5-5-3-5-5-3---7-5---7-7-5--7-7-5--7-7-5-o||
E---------------------------------7----------------------||

G-||--7H9-9-7-9-7----||--
D-||o-------------9-o||-- REPITES X2
A-||o---------------o||--
E-||-----------------||--

  VERSO
G---------------------------------------------------------
D---------------------------------------------------------
A---7-5---7-7-5--7-7-5--7-7-5---3-2---3-3-2--3-3-2--3-3-2-
E-------7---------------------------3---------------------


G-----------------------------------------9-7-9-7-9-7-9-
D-------------------------------------------------------
A---5-5-3-5-5-3-5-5-3-5-5-3---7-5---7-7-5---------------
E---------------------------------7---------------------

G-------------------------------------------------------
D-------------------------------------------------------
A---7-5---7-7-5--7-5---7-7-5---3-2--3-3-2--3-3-2--3-3-2-
E-------7------------7-------------3--------------------

G-------------------------------------------------------
D-------------------------------------------------------
A---5-5-3-5-5-3-5-5-3-5-5-3---7-5---7-7-5--7-7-7-5------
E---------------------------------7---------------------

    CORO
G-||-----------------------------------------------------
D-||o----------------------------------------------------
A-||o--3-3-3-3-3-3-3-3--5-5-5-5-5-5-5-5--7-7-7-7-7-7-7-7-
E-||-----------------------------------------------------

G--------------------||--
D-------------------o||-- PEPETIR X3
A---7-7-7-7-7-7-7-5-o||--
E--------------------||--

G-----------------------
D-----------------------
A---3-3-3-3-3-3-3-3---5-
E-----------------------

G---7H9-9-7-9-7---7-9-------------------------
D---------------9-----------------------------
A-------------------------3-3-3-3-3-3-3-3---5-
E---------------------------------------------

G---------------------------------------------------
D---------------------------------------------------
A---7-5---7-7-5--7-7-5--7-7-5---3-3-3-3-3-3-3-3---5-
E-------7-------------------------------------------

 ULTIMO REQUINTO
G-----------------------------------------------------
D-----------------------------------------------------
A---7-7-7-7-7-7-7-7--3-3-3-3-3-3-3-3--5-5-5-5-5-5-5-5-
E-----------------------------------------------------

G-----------------------------------------------------
D-----------------------------------------------------
A---7-7-7-7-7-7-7-7--3-3-3-3-3-3-3-3--5-5-5-5-5-5-5-5-
E-----------------------------------------------------

G------------------------------------------7-9--7-9-
D-----------------------------------------9----9----
A---7-7-7-7-7-7-7-7--3-3-3-3-3-3-3-3--5/7-----------
E---------------------------------------------------

  FIN...(Improvizado)
G-----------7-----------------
D-------7-9---9-7-9-7---------
A---7-9---------------9---7..-
E-----------------------------

Dudas ami correo sale banda y que viva el RoOoOoOoOoOcK
Suggest correction
Give kudos to tab author, rate the tab!
1 2 3 4 5
comments
print report bad tab
guest
You may want to rate the tab now too:
select rating
Wanna post a correction for this tab? Suggest correction