Oops, an error
Loading. Please wait.

En Dos Tab

78 views 1 this week
no commentswrite comment
1 2 3 4 5
3 more votes to show rating
add to favorites
launch autoscroll
font size
0
reset
how to read this tab
guitar tuner
Autoscroll
slow
fast
+/-
esc
set tempo
stop
Help us to improve Ultimate-Guitar.com Take our survey!
×
Intro:C-Fmj7-C-Fmj7-C

                                     Fmj7  C
No puedo creer que esto sea el final
                                   Fmj7   Am
de esta gran historia entre tu y yo
                             G
no me digas adios por un error
Am                            G   C
en el nombre del amor perdoname
                                Fmj7   C
No puedo creer que esto se acabo
                               Fmj7  Am
de todo lo que ubo entre tu y yo

no permitas que tu orgullo
                 G
tome esta decision
Am                            G
cuando tu corazon ya me perdono

C
No puedo vivir en soledad
G                            Am
no puedo reir si tu te vas

no hay una parte de ti
                 G G7
que no recuerde yo
C
como seria el mundo sin tu amor
G
en cada segundo habra dolor
Am
no quiero pensar no no
                 G  G7
dejar de oir tu voz
C
vamos aintentarlo otra vez
G
se que al volver sera mejor
Am
no permitas que este sueño
                 G
se nos rompa en dos
          C
ya no en dos
    G
en dos
     Am
mi amorr
          G
ya no en dos


(solo)
   C                      G                        Am
E-12-121212-12/13-1212---7/8-888--10-12-10-8-7-8-7h8p7-----------
B------------------------------------------------------10-8------
G-----------------------------------------------------------10-9-
D----------------------------------------------------------------
A----------------------------------------------------------------
E----------------------------------------------------------------
                             G
E----------------7h8-88-7------------------------------
B--------8-10-------------10-8-------------------------
G-7-9-10-------------------------7h9-997---79109-------
D----------------------------------------10------------
A------------------------------------------------------
E-------------------------------------------------------
  C                       G                       Am
E-12-121212-12/13-1212---8/10-101010-10/12-10-8-7----8-7-----8-7-
B-------------------------------------------------10------10-----
G----------------------------------------------------------------
D----------------------------------------------------------------
A----------------------------------------------------------------
E----------------------------------------------------------------
                    G
E----8-10-12--12-10-8------7-----------------------------
B-10--------------------10b--10-8-----8----------------8-
G--------------------------------10-9---10---9b-9-7----7-
D---------------------------------------------------9----
A--------------------------------------------------------
E--------------------------------------------------------

C
No puedo vivir en soledad...(etc)

C (silencio)                         fig.1
No puedo creer que esto sea el final

  fig.1                   C
E-------------------------0-
B------1-0----------------1-
G----2-------2-0----------0-
D--3-------------3-2--0---2-
A-------------------------3-
E-------------------------3-
         Fmj7
       E--0-
       B--1-
       G--2-
       D--3-
       A--0-
       E--0-

Esta es mi primera transcripcion
espero y les salga chido
cualquier duda sobre la tab o los acordes escribanme
ami correo (
Suggest correction
Give kudos to tab author, rate the tab!
1 2 3 4 5
comments
print report bad tab
guest
You may want to rate the tab now too:
select rating
Wanna post a correction for this tab? Suggest correction