Oops, an error
Loading. Please wait.

La Pesadilla Tab

by Sur 16
27 views 6 this week
no commentswrite comment
1 2 3 4 5
3 more votes to show rating
add to favorites
×
Save as Personal and add changes to this tab that will be seen only by you. Learn more ›
×
You can save this tab as Personal to edit and correct it or add notes. All changes will be seen only by you. Learn more »
save as personal
new!
launch autoscroll
font size
0
reset
how to read this tab
guitar tuner
Autoscroll
slow
fast
+/-
esc
set tempo
stop
Gm-A#-C


E-------------------------------------------------------------
A-------------------------------------------------------------
D-------------------------------------------------------------
G-8-9-10---------------------------8-9-10---------------------
B--------8-11-8--11-8--10h9h8--9-8--------8-11-------------11-
e----------------------------------------------10--10-10-8----

E------------------------------I----------------------------------
A------------------------------I----------------------------------
D------------------------------I----------------------------------
G-------------------------11-9-I---------------------10-10-10h9h8-
B-11-11-10-10-8-8-11-10-8------I-11^-11-11-10-11-10-8-8-----------
e-----------------------------------------------------------------

E--------
A--------
D-10-8-5-
G--------
B--------
e--------

         Gm
Se nos cruzaron las miradas
    A#      C
La tarde fría
           Gm
Te vi esquivando el viento tibio
  A#   C
Y el amor
         Gm
Tú me abrasaste y me pediste
    A#      C
Que no volviera
          Gm
Tú me enseñaste la locura
     A#   C         Gm  A#-C
Y el dolor, Y el dolor
        Gm  A#-C
Y el dolor

E--------------------------------------------
A--------------------------------------------
D---------------------------------10-8-5-7-8-
G---------------------10h9h8-10-8------------
B-8-8-11-11-10-10-8-8------------------------
e--------------------------------------------
            Gm
Entre tus piernas yo deje
      A#    C
Mis viejos sueños
       Gm
Y el deseo de vagar
   A#       C
Sin dirección
         Gm
Ahora vivo yo pensando
  A#        C
Que fallaría
       Gm
Estoy clavado y bien perdido
   A#      C             Gm  A#-C
En el alcohol, En el alcohol
          Gm  A#-C
En el alcohol

A#                  C
Me desperté con una lágrima
            Gm
En la mejilla
A#                   C
Estos fantasmas me marean
            Gm
Si no hay amor
A#                  C
El frió cae y no soporto
        Dm                        Gm  A#-C
La pesadilla, De vagar sin dirección
         Gm  A#-C
Siento el calor
           Gm  A#-C
Y sin tu amor

E----------------------------------------------------
A----------------------------------------------------
D-8-10---8-10-----8-10-------------------------------
G-----10-----10-------10-10-10-10-12-10-12--12-10-10-
B--------------11-------------------------10---------
e----------------------------------------------------

E-----------------------------------I--------------------------
A-----------------------------------I--------------------------
D-8-10------------------------------I--------------------------
G-----10-10-------------------------I---------------10-8-10-10-
B----------11-10-11-10-8-11-10-11---I-8/11-10-8-10-8-----------
e--------------------------------10-I--------------------------
E--------------------------I-----------------------------------------
A--------------------------I-----------------------------------------
D--------------------------I------------------------------------10-8-
G--------------------------I------10-10h9h8-10-10-10h9h8-10-10-8-----
B-8/11-10-11--10-11--10/11-I-11-10-----------------------------------
e-----------10-----10------I-----------------------------------------

E---------------------------------------------------
A---------------------------------------------------
D-8-10-8-10--8--------------------------------------
G----------10-10-12-10------------------------------
B---------------------10-11-11^-14-11-10/11-11/10-8-
e---------------------------------------------------

E---------------------------------------------------
A---------------------------------------------------
D---------------------------------------------------
G---------------------------------------10-10-10h12-
B-8--10/11--10/11--10/11--11/10--11-10-8------------
e---------------------------------------------------

           Gm
La noche sirve pa´ velar
      A#  C
Caricias muertas
          Gm
Y besos tibos en la espalda
     A#     C
No existen más
              Gm
Si miro al cielo veo tu rostro
 A#       C
Entre las nubes
              Gm
Y esta escondido y esperando
   A#     C            Gm  A#-C
A quien amar para engañar
          Gm  A#-C
Para engañar

A#                  C
Me desperté con una lágrima
            Gm
En la mejilla
A#                   C
Estos fantasmas me marean
            Gm
Si no hay amor

A#                  C
El frió cae y no soporto
        Dm                   Riff 1
La pesadilla, De vagar y rodar
                Riff 2
De rodar y vagar
             Gm
Sin dirección

E-------------------------    E-3-3--5/6--6-6-6-5-
A-------------------------    A-------------------
D-------------------------    D-------------------
G-------------------------    G-------------------
B-8-8--10/11--11-11-11-10-    B-------------------
e-------------------------    e-------------------
          Riff 1                      Riff 2


Esta canción esta bien chingona
Espero que la toquen igualita y hasta mejor
Kamara si quieren otra rola de sur 16
Ahí tengo mis guardaditas
Suggest correction
Give kudos to tab author, rate the tab!
1 2 3 4 5
comments
print report bad tab
guest
Wanna post a correction for this tab? Suggest correction