Oops, an error
Loading. Please wait.

Mi Libertad Tab

by Sur 16
52 views 1 this week
no commentswrite comment
1 2 3 4 5
3 more votes to show rating
add to favorites
launch autoscroll
font size
0
reset
how to read this tab
guitar tuner
×
Best way to learn
"Mi Libertad"
Autoscroll
slow
fast
+/-
esc
set tempo
stop
intro(varias veces):

Pequeño arreglo de armónica y guitarra(espero que esté
maomenos bien)

-------------------------------------------------
--------------------------------1----------------
-----------------2------------0---0------------0-
-0-2-2-0------2-----2--------2----------------0--
---------3-0-----------0-2-3----------3-2---2----
------------------------------------------3------

O si no  te gusta el anterior, este:

              Am              C            G
--------------0-0-0-0---------0-0-0-0------1-1-1-1-
--------------1-1-1-1---------1-1-1-1------0-0-0-0-
--------------2-2-2-2---------0-0-0-0------0-0-0-0
-0-2-2-0------2-2-2-2---------2-2-2-2------0-0-0-0-
---------3-0- 0-0-0-0--0-2-3--3-3-3-3-3-2--2-2-2-2-
--------------0-0-0-0---------0-0-0-0------3-3-3-3-


-1-1-1-1-1-----------------------------------------
-0-0-0-0-0-----------------------------------------
-0-0-0-0-0-----------------------------------------
-0-0-0-0-0-----------------------------------------
-2-2-2-2-2-----------------------------------------
-3-3-3-3-3-----------------------------------------


G             C                  G
 Llevo mi libertad a donde quiera
G             C               G 
 llevo mi libertad a donde sea
Am                    C              G 
 pero ya nada es igual ya no está ella
Am                     C             G 
 pero ya nada es igual, nada sin ella

G                C             G
 Hago de la soledad mi compañera
G                 C              G
 hago con la soledad canciones poemas
Am                    C              G
 pero ya nada es igual ya no está ella
Am                    C                        G
 pero ya nada es igual me hace falta su estrella

   C                                      G
 puedo meterme en un bar y llorarle otra vez
      C                                         G
 no puedo encontrar el amor en otros brasos lo sé
C                   D                    G
 era la luz de mis días la alegría y la paz 
C                    D                   G
 era la luz de mis días la alegría y la paz

G                   C             G 
 Sigo extrañandole todo día tras día
G                    C              G
 sigo cantando y luchando sobre la vía
Am                    C              G
 pero ya nada es igual ya no está ella
Am                    C            G
 pero ya nada es igual nada sin ella

 
 Puedo meterme en un bar...

                        
NOTA: Cualquier error de 'transcripción' es de sur 16
pues no la tocó bien, así que la culpa es de ellos.(broma).

NOTA-PLUS: Cualquier falta de ortografía es culpa mía.

Gracias a Javier de Sur 16 por el comentario y la nota.

.......y a Marisol, pues la amo y me ama-creo.

.......y a mi perro;Chido.
Suggest correction
Give kudos to tab author, rate the tab!
1 2 3 4 5
comments
print report bad tab
guest
You may want to rate the tab now too:
select rating
Wanna post a correction for this tab? Suggest correction