Oops, an error
Loading. Please wait.

Tren De Paso Tab

23 views 1 this week
no commentswrite comment
1 2 3 4 5
3 more votes to show rating
add to favorites
launch autoscroll
font size
0
reset
how to read this tab
guitar tuner
Autoscroll
slow
fast
+/-
esc
set tempo
stop
Help us to improve Ultimate-Guitar.com Take our survey!
×
Version Por: El Chospe.

Intro:

     C        D        D11       C                 D
||-------0--------2--------3--------0---------0--------2-----||
||---1-----1--3-----3--------2------------------1--------3---||
||-----0--------2--------0--------0---------0--------2-------||
||------------0--------2---------------------------0---------||
||---3--------------------------------0-2-3------------------||
||-------------------------------0---------------------------||

||-----------------------------------------------------------||
||-----------------------------------------------------------||
||------------9-11-10~~~11h10p11-9~~-7-5-4~~~-4h5-4-0-2-0----||
||-----------------------------------------------------------||
||-----------------------------------------------------------||
||-----------------------------------------------------------||


G             C
        Subi, de pronto a un tren
G  G7     C         D             G  G7
        Queria escaparme yo, de aqui
               C         D        Bm        Em
        El destino no lo se, no sabia donde ir
            C       D
        Queria olvidarme de ti.

G  G7     C          D          G  G7
        Dejar todo atras y no volver
            C                D
        Encontrar a alguien mas
                 Bm            Em
        Que en verdad supiera amar
              C    D         G  G7
        De pronto la vi ahi.

Acustica: C  D  Bm  Em  C  D  G  G7

Distorcion:
||Aqui-"-3--3-0---0-3--(3)/8--7-5--"----5-6-7-||
||-Va--"-3--3-0-3-0-3--(3)/8--7-5--"----5-6-7-||
||-Un--"--------4------------------"x3--------||
||Pick-"---------------------------"----------||
||Slide"---------------------------"----------||
||-----"---------------------------"----------||
             C         D             G  G7
        Su pelo era agitado por el viento,
                                  Fig #A
            C           D          Bm            Em
        Su mirada era triste, pues no sabia sonreir
              C          D         G  G7
        Y le dije... ¿A donde iras tu?
            C           D              G  G7
        Con lagrimas me dijo aun no lo se
             C        D        Bm             Em
        Buscare un lugar donde nadie me encuentre,
     C            D          G  G7
        Pues jugaron con mi amor.

Fig #A
1||-------2-------0-----||
2||---------3-------0---||
3||-----4-------0-------||
4||---4-------2---------||
5||---------------------||
6||---------------------||

Fig #C
1||------------------------------||
2||---10b-------10h12p10---------||
3||----------------------10b12---||
4||------------------------------||
5||------------------------------||
6||------------------------------||

Fig #D
1||---12b--10h12p10--------------||
2||------------------10--(10)/12-||
3||------------------------------||
4||------------------------------||
5||------------------------------||
6||------------------------------||

Fig #E
1||------12----10----------------------------------||
2||---------12----10--8/12-10-8-----5-8----5-8--5-8||
3||-9h11--------------------------7------7---------||
4||------------------------------------------------||
5||------------------------------------------------||
6||------------------------------------------------||

                                        Fig #C
           C          D              G  G7
        Le dije que ahi queria estar yo,
                                         Fig #D
                 C           D             Bm            Em
        Por que como tu tambien, se han burlado de este amor
        Fig #E
                C           D           G  G7
        Y nos fuimos en un tren de paso.

        Solo...

             C         D             G  G7
        Su pelo era agitado por el viento,
            C           D          Bm       Em
        Su mirada era triste, no sabia sonreir
              C          D         G  G7
        Y le dije... ¿A donde iras tu?
            C           D              G  G7
        Con lagrimas me dijo aun no lo se
             C        D        Bm             Em
        Buscare un lugar donde nadie me encuentre,
     C            D          G  G7
        Pues jugaron con mi amor.

           C          D              G  G7
        Le dije que ahi queria estar yo,
                 C           D             Bm            Em
        Por que como tu tambien, se han burlado de este amor
                C           D           G  G7
        Y nos fuimos en un tren de paso.
                C         D                G  G7
        Y nos fuimos con rumbo hacia el sur.
                C
        Y nos fuimos...
                         G   C   G
        Buscando ese amor.

G     320033
G7    320001
C     032010
D     000232
D11   xx2032
Em    022000
Bm    224432

Pa` toda la banda que busque la tab ahi se las dejo, saludos pa`
la banda del barrio pin... geral, chore y metoro.
Suggest correction
Give kudos to tab author, rate the tab!
1 2 3 4 5
comments
print report bad tab
guest
You may want to rate the tab now too:
select rating
Wanna post a correction for this tab? Suggest correction