Oops, an error
Loading. Please wait.

Una Oportunidad Tab

12 views 1 this week
no commentswrite comment
1 2 3 4 5
3 more votes to show rating
add to favorites
launch autoscroll
font size
0
reset
how to read this tab
guitar tuner
Autoscroll
slow
fast
+/-
esc
set tempo
stop
Help us to improve Ultimate-Guitar.com Take our survey!
×
Intro: A-E-F#m-D-Dm-E

E------------------------------------------------------------
A------------------------------------------------------------
D------------------------------------------------------------
G--9-11-14----------------14---------------------------------
B---------14--14-12--14-12---------------------14-12--14-10--
e----------------------------12/14-14--12/14-12--------------

E--------------------------------------------------
A--------------------------------------------------
D--------------------------------------------------
G--------------------------------------------------
B--14-12-10-10--10-12-10--14-12-10-10--14----------
e----------------------------------------12-14-12--

A           E
Busco un instante
      F#m
Para estar juntos los dos
         D
No volvera el tiempo atras
        Dm              E
Y luchere al final por ti

A         E
Yo solo quiero
        F#m
Una caricia y mucho amor
            D
Que tengas tu para mi
           Dm             E
Que me pueda enloquecer asi

F#m
En el silencio
         C#m
De esta obscuridad total
       D
Es lo sobrenatural
           Dm
Este es el no material
     A      E         A-E
Es amor,oh si!! el amor...


E--------------------------------------------------------------------
A--------------------------------------------------------------------
D--------------------------------------------------------------------
G---------------14-11--9-11-9-----14-11--9-11-9-----14-11------------
B--14--14-12--12-------------14-12-------------14-12-----14----------
e----------------------------------------------------------12-14-12--

E------------------------------------------------------------------------
A------------------------------------------------------------------------
D------------------------------------------------------------------------
G--------------------------9-11-9-----14-11--9-11-9-----14-11------------
B------------------------14------14-12-------------14-12-----14----------
e--12--11-12-13--12-13-14--------------------------------------12-14-12--

A         E
En mi silencio
      F#m
Solo vivo para ti
            D
Que tienes tu para mi
          Dm              E
Que me pueda enloquecer asi

A           E
Hoy me encomiendo
        F#m
A cada paso ese calor
           D
Que tienes en tu mirar
        Dm                E
En tu dulce caminar corazon

F#m
En el silencio
            C#m
De esta soledad total
           D
Es lo sobrenatural
           Dm
Este es el no maternal
     A      E         A-E
Es amor,oh si!! el amor...


E--------------------------------------------------------------------
A--------------------------------------------------------------------
D--------------------------------------------------------------------
G---------------14-11--9-11-9-----14-11--9-11-9-----14-11------------
B--14--14-12--12-------------14-12-------------14-12-----14----------
e----------------------------------------------------------12-14-12--

Guitarra
E-----------------------------------------------------
A-----------------------------------------------------
D-----------------------------------------------------
G-----------------------------------------------------
B--14--------14---------14--14--12-14-12-14-12-14-10--
e----12-14-12--12-14-12---12--------------------------

E------------------------------------------------------------
A------------------------------------------------------------
D------------------------------------------------------------
G--9-11-9----------9-11--------------------------------------
B--------14--14-10-----14^--14-10--14------------------------
e----------12-------------12---------12-14--12h14h12--14-12--

F#m
En el silencio
            C#m
De esta soledad total
       D
Es lo sobrenatural
              Dm
Este es el no maternal
    A       E         A-E
Es amor,oh si!! el amor...
     A-E
El amor...
       D-Dm-A-E (pausa)
El amor...

                                     A
E---------------------------------I--o--I--
A---------------------------------I--o--I--
D---------------------------------I--2--I--
G--11-9-7-11-9-7-11-9-7-11-9-7-7--I--2--I--
B---------------------------------I--2--I--
e---------------------------------I--0--I--
Suggest correction
Give kudos to tab author, rate the tab!
1 2 3 4 5
comments
print report bad tab
guest
You may want to rate the tab now too:
select rating
Wanna post a correction for this tab? Suggest correction