Oops, an error
Loading. Please wait.

Sencilla Y Fragil Tab

version 1
version 1

Whole song

59 views 1 this week
no commentswrite comment
1 2 3 4 5
2 more votes to show rating
add to favorites
launch autoscroll
font size
0
reset
how to read this tab
guitar tuner
Autoscroll
slow
fast
+/-
esc
set tempo
stop
Help us to improve Ultimate-Guitar.com Take our survey!
×
RIFF 1                RIFF 2 IGUAL QUE EL 1 PERO MÁS RAPIDO
ESTAS PARTES LAS LLAMAREMOS:
     K     L     M
E|-3----|3----|3----
B|----3-|---3-|---3-
G|---0--|--0--|--0--  
D|--0---|-0---|-0---
A|------|-----|-----
E|-3----|2----|0----

RIFF 3                     LUEGO RIFF 2
E|-3/5\3-3----------3----
B|----------3-3/5\3----3-
G|---------0----------0--
D|--------0----------0---
A|-----------------------
E|-------2----------0----

La estrofa comienza cuando termina la ultima nota del RIFF 2.
               L
Te puedo imaginar 
         M 
en la oscuridad 
    K           L       M 
que rodea a mi habitación, 
                     L
comienzo a experimentar 
             M
tus tiernos besos 
    K           L    N     O  
que penetran mi interior.
                   
                         N          O         P
                   E|-0-------|2-----------|----2-----
                   B|----0-0--|-0----------|-----0----   
                   G|---0---0-|--0---------|---0--0---   
                   D|--2-----2|---2--------|--2----2--
                   A|---------|----2-02----|-2-------2
                   E|-0-------|------------|----------

EN EL CORO RASGUEA LA NOTA HACIA ANAJO Y LUEGO PUNTEA HACIA ARRIBA.

G          D           Em    O
Tu saliva corre en mis venas,
G             D              G D Em P 
Tus dulces labios alivian mis penas,
   G D Em
Mis penas.

G                 D
Es difícil controlar 
          Em
esto que siento 
           G    D     Em
que no me deja descansar, 
G                  D
hoy te digo mi verdad 
        Em
que me muero 
          G      D     N   O
si en mi vida tu no estas.

CORO X 1 

SOLO:
E|-3-3-5-5/7-5-5-5\3-3-5/7^|-3-3-5-5/7-5-5-5-5\3-3/5\3|
B|-------------------------|--------------------------|

E|------3-5-3-3/5-3-----3-5-3-3/5-3-----3-5-5/7-8|
B|5-3-5-------------3-5-------------3-5----------|

E|-10-10-8-8-8/9-7-5/7-7-7\5-5-|
B|-----------------------------|

Tercera estrofa igual que la primera.

Ven a mi no te resistas 
que me haces daño 
si mi vida no es tu vida, 
hoy te entrego mi canción 
sencilla y frágil
como lo es mi corazón.                                     

CON DISTORSION. 
G          D            Em
Tu saliva corre en mis venas,
G             B                Em
tus dulces labios alivian mis penas...

ESPERO QUE LES GUSTE, HAY ALGUNOS ARREGLOS 
QUE NO ESTAN IDÉNTICOS PERO SUENAN MUY BIEN. 
DUDAS, CORRECCIONES, SUGERENCIAS ESCRIBIR A 
wapmrock@
Suggest correction
Give kudos to tab author, rate the tab!
1 2 3 4 5
comments
print report bad tab
guest
You may want to rate the tab now too:
select rating
Wanna post a correction for this tab? Suggest correction