Oops, an error
Loading. Please wait.

Sencilla Y Fragil Tab

version 2
version 2

Whole song

by Sureste
73 views 1 this week
no commentswrite comment
1 2 3 4 5
3 more votes to show rating
add to favorites
×
Save as Personal and add changes to this tab that will be seen only by you. Learn more ›
launch autoscroll
font size
0
reset
how to read this tab
guitar tuner
Autoscroll
slow
fast
+/-
esc
set tempo
stop
Intro:

        Em           D            C          G            F#
E|-0----------|-------------|-----------|-3----------|--2--------|
A|------------|-------------|-3---------|------------|-----------|
D|------------|--0-----0----|-------2---|------------|----2------|
G|-------0----|------2---2--|-----0---0-|---0--------|-----------|
B|-----0---0--|----3--------|---1-------|-----3------|------2----|
e|---0--------|-------------|-----------|------------|-----------|

Este arpegio se repite 2 veces y a la segunda vez a la hora que se toca
Em y D se tocan estas notas.

G|-7/97---|
B|---------|


Em              D
 Te puedo imaginar
          C
 En la oscuridad
        G       F#      Em
 Que rodea mi habitació on


Em                    D
 Comienzo a experimentar
              C
 Tus tiernos besos
        G        F#      Em
 Que penetran mi interio or


Coro:

E|--5/7----|
A|------3--|

C          D             Em
 Tu saliva corre en mis venas

E|--5/7----|
A|------3--|

C            D                 Em  D  C       C-Em- G
 Tus dulces labios alivian mis pe  e nas, mis pe e nás


Em                 D
 Es difícil controlar
            C
 Esto que siento
           G    F#      Em
 Que no me deja descansa ar


Em                    D
 Y hoy te digo mi verdad
          C
 Que me muero
           G      F#     Em
 Si en mi vida tu no esta as

CORO:

Notas que van en el solo (Em - D - C)X5

E|-------------------------------------|
A|-------------------------------------|
D|-------------------------------------|
G|-------------------------------------|
B|-8-8h10-10/12-10--8-10-10p8-8--------|
e|------------------------------5/7-7v-|


E|----------------------------------------|
A|----------------------------------------|
D|----------------------------------------|
G|----------------------------------------|
B|-8-8h10-10/12-10--8-10-10p8-8-----------|
e|-------------------------------3-3/5-3v-|


E|---------------------------------|
A|---------------------------------|
D|-12------------------------------|
G|----10---------------11h12p11----|
B|-------8-8/10-8-10-8-------------|
e|---------------------------------|

E|---------------------------------|
A|---------------------------------|
D|-12------------------------------|
G|----10---------------11h12p(11)--|
B|-------8-8/10-8-10-8-------------|
e|---------------------------------|

E|---------------------------------|
A|---------------------------------|
D|-12------------------------------|
G|----10---------------------------|
B|-------8-8/10-8-10/12-(12)-------|
e|---------------------------------|

E|-------------------------------------------|
A|-------------------------------------------|
D|-------------------------------------------|
G|-------------------------------------------|
B|--13/15-13-12-13-12-8/10-10-10/1210-8-8/8-|
e|-------------------------------------------|


Ven a mi no te resistas

Que me haces daño

Si mi vida no es tu vida


Yo te entrego mi cancion

Sencilla y frágil

Como lo es mi corazoon


CORO: se repite 4 veces


/ = Slide up
 = slide down
v  = vibrato
B  = Bend
h  = Hammer on
p  = pull off
() = la nota sigue sonando


hey nos vemos luego espero que la puedan saKar bien.
saludos desde el salvador...
Suggest correction
Give kudos to tab author, rate the tab!
1 2 3 4 5
comments
print report bad tab
guest
You may want to rate the tab now too:
select rating
Wanna post a correction for this tab? Suggest correction