Oops, an error
Loading. Please wait.

Doom Generation tab

280 views 6 this week
no commentswrite comment
1 2 3 4 5
2 more votes to show rating
add to favorites
×
Save as Personal and add changes to this tab that will be seen only by you. Learn more ›
×
You can save this tab as Personal to edit and correct it or add notes. All changes will be seen only by you. Learn more »
launch autoscroll
font size
0
reset
how to read this tab
guitar tuner
edit
Autoscroll
slow
fast
+/-
esc
set tempo
stop
Author
Difficulty
About this tab version
Contains full write out of song. Was this info helpful? Yes No
Tabbed by J

Lyrics
Verse 1
I fell in love with Jimmy
I saw him on TV
I didn't really want to 
but everybody made me

Verse 2
I heard it from Jimmy 
The end is so silly
For a generation of living
A Generation of doom

Chorus 
Bleed for me

[Verse]
   Bb Cm7   Bb Cm7          Eb  
e|-6--8--8--6--8--8--8--8---11-11-11-11-11-11-11-11-|
B|-6--8--8--6--8--8--8--8---11-11-11-11-11-11-11-11-|
G|-7--8--8--7--8--8--8--8---12-12-12-12-12-12-12-12-|
D|-8--8--8--8--8--8--8--8---13-13-13-13-13-13-13-13-|
A|-8--10-10-8--10-10-10-10--13-13-13-13-13-13-13-13-|
E|-6--8--8--6--8--8--8--8---11-11-11-11-11-11-11-11-|

Played during Bb & Cm7 part
e|-----------------------------|
B|-----------------------------|
G|-------8----8----8----8----8-| x 2
D|-----------------------------|
A|-8h-10---10---10---10---10---|
E|-----------------------------|

Played during Eb
e|-----------------------------------|
B|-----------------------------------|
G|--------12----12----12----12----12-|
D|-----------------------------------|
A|-11h-13----13----13----13----13----|
E|-----------------------------------|

[Chorus]
   Cm7                      Eb
e|-8--8--8--8--8--8--8--8---11-11-11-11-11-11-11-11-|
B|-8--8--8--8--8--8--8--8---11-11-11-11-11-11-11-11-|
G|-8--8--8--8--8--8--8--8---12-12-12-12-12-12-12-12-|
D|-8--8--8--8--8--8--8--8---13-13-13-13-13-13-13-13-|
A|-10-10-10-10-10-10-10-10--13-13-13-13-13-13-13-13-|
E|-8--8--8--8--8--8--8--8---11-11-11-11-11-11-11-11-|

Played during Cm7
e|-----------------------------|
B|-----------------------------|
G|-------8----8----8----8----8-| x 2
D|-----------------------------|
A|-8h-10---10---10---10---10---|
E|-----------------------------|

Played during Eb
e|-----------------------------------|
B|-----------------------------------|
G|--------12----12----12----12----12-|
D|-----------------------------------|
A|-11h-13----13----13----13----13----|
E|-----------------------------------|


************************************

| h   Hammer-on

************************************
Suggest correction
Creating personal tab
Creating personal tab
You can edit any tab online and save it as your Personal.

You can edit, replace or remove any tab part or add personal notes – all changes will be seen only by you.

Personal tabs can be accessed anytime from any device, even offline.
Learn more »
Give kudos to tab author, rate the tab!
1 2 3 4 5
comments
print report bad tab
guest
You may want to rate the tab now too:
select rating
Wanna post a correction for this tab? Suggest correction