Oops, an error
Loading. Please wait.

Haunt Me Tab

22 views 3 this week
no commentswrite comment
1 2 3 4 5
3 more votes to show rating
add to favorites
launch autoscroll
font size
0
reset
how to read this tab
guitar tuner
Autoscroll
slow
fast
+/-
esc
set tempo
stop
Help us to improve Ultimate-Guitar.com Take our survey!
×
Author
Difficulty
novice
About this tab version
Simple song, all chords are major chords. Was this info helpful? Yes No
Surf Curse - Haunt Me
Track 4 from the "Sad Boys" EP (2013).

Tabbed by Isaac Murguia, October 2016.
Originally uploaded to Ultimate-Guitar.com
Contact: www.youtube.com/user/Goadiroth

[VERSE] (A / B / C# / D)
e|-5555555-----------------------------|
B|-5555555--4444444--6666666--7777777--|
G|-6666666--4444444--6666666--7777777--|
D|-7777777--4444444--6666666--7777777--|
A|-7777777--2222222--4444444--5555555--|
E|-5555555-----------------------------| x4

[CHORUS] (A / D / E / D)
e|-5555555-----------------------------|
B|-5555555--7777777--9999999--7777777--|
G|-6666666--7777777--9999999--7777777--|
D|-7777777--7777777--9999999--7777777--|
A|-7777777--5555555--7777777--5555555--|
E|-5555555-----------------------------| x4

Repeat VERSE
Repeat CHORUS

[BRIDGE] (A / D / C# / E)
e|-5-------------------5-------------------|
B|-5----7----6----9----5----7----6----9----|
G|-6----7----6----9----6----7----6----9----|
D|-7----7----6----9----7----7----6----9----|
A|-7----5----4----7----7----5----4----7----|
E|-5-------------------5-------------------|

[OUTRO] (A / D / C# / E)
e|-5555555-----------------------------|
B|-5555555--7777777--6666666--9999999--|
G|-6666666--7777777--6666666--9999999--|
D|-7777777--7777777--6666666--9999999--|
A|-7777777--5555555--4444444--7777777--|
E|-5555555-----------------------------| x4

e|-5------|
B|-5------|
G|-6------|
D|-7------|
A|-7------|
E|-5------|

End. Please rate! :D
Suggest correction
Give kudos to tab author, rate the tab!
1 2 3 4 5
comments
print report bad tab
guest
You may want to rate the tab now too:
select rating
Wanna post a correction for this tab? Suggest correction