Oops, an error
Loading. Please wait.

Im Not Making Out With You chords

4,346 views 33 this week
no commentswrite comment
1 2 3 4 5
x 11
add to favorites
×
Save as Personal and add changes to this tab that will be seen only by you. Learn more ›
×
You can save this tab as Personal to edit and correct it or add notes. All changes will be seen only by you. Learn more »
launch autoscroll
font size
0
reset
transpose
0
reset
display chords
guitar tuner
edit
Autoscroll
slow
fast
+/-
esc
set tempo
stop
Strumming
There is no strumming pattern for this song yet. and get +5 IQ
Surf Curse - I'm Not Making Out With You
Sad Boys EP - 2013
________________________________________________

**High Em for Verses, Low Em for Chorus'**

    C     F     Em    Em    G
e|--8-----8-----7-----0-----3---|
B|--8-----10----8-----0-----3---|
G|--9-----10----9-----0-----4---|
D|--10----10----9-----2-----5---|
A|--10----8-----7-----2-----5---|
E|--8-----------------0-----3---|

________________________________________________

[Intro]

e|------------|------------|------------|------------|------------|------------|
B|-8----------|-8----------|-8----------|-8----------|-8----------|-8----------|
G|----9-------|----9-------|----9-------|----9-------|----9-------|----9-------|
D|------10--9-|------10--9-|------10--9-|------10--9-|------10--9-|------10--9-|
A|------------|------------|------------|------------|------------|------------|
E|------------|------------|------------|------------|------------|------------|
                             C                         F
e|------------|------------|------------|------------|------------|------------|
B|-8----------|-8----------|-8----------|-8----------|-8----------|-8----------|
G|----9-------|----9-------|----9-------|----9-------|----9-------|----9-------|
D|------10--9-|------10--9-|------10--9-|------10--9-|------10--9-|------10--9-|
A|------------|------------|------------|------------|------------|------------|
E|------------|------------|------------|------------|------------|------------|
   C                         F                         C
e|------------|------------|------------|------------|------------|------------|
B|-8----------|-8----------|-8----------|-8----------|-8----------|-8----------|
G|----9-------|----9-------|----9-------|----9-------|----9-------|----9-------|
D|------10--9-|------10--9-|------10--9-|------10--9-|------10--9-|------10--9-|
A|------------|------------|------------|------------|------------|------------|
E|------------|------------|------------|------------|------------|------------|
   F                         C                         F
e|------------|------------|------------|------------|------------|------------|
B|-8----------|-8----------|-8----------|-8----------|-8----------|-8----------|
G|----9-------|----9-------|----9-------|----9-------|----9-------|----9-------|
D|------10--9-|------10--9-|------10--9-|------10--9-|------10--9-|------10--9-|
A|------------|------------|------------|------------|------------|------------|
E|------------|------------|------------|------------|------------|------------|

[Verse 1]

C           F             Em
  We drove around in your car, woah~
C         F                Em
  But we didn't drive very far, woah~
C            F                Em
  Cause your tongue was in my mouth, woah~
C           F                 Em
  and I'm thinking of someone else, woah~

[Chorus]

C    Em   G                         C
            I'm not making out with you
Em   G                            C
        Even though I think your cute
Em   G                          C
        I'm not making out with you
Em   G                              C
        Cause you always make me blue

   C                         F                         C
e|------------|------------|------------|------------|------------|------------|
B|-8----------|-8----------|-8----------|-8----------|-8----------|-8----------|
G|----9-------|----9-------|----9-------|----9-------|----9-------|----9-------|
D|------10--9-|------10--9-|------10--9-|------10--9-|------10--9-|------10--9-|
A|------------|------------|------------|------------|------------|------------|
E|------------|------------|------------|------------|------------|------------|
   F                         C                         F
e|------------|------------|------------|------------|------------|------------|
B|-8----------|-8----------|-8----------|-8----------|-8----------|-8----------|
G|----9-------|----9-------|----9-------|----9-------|----9-------|----9-------|
D|------10--9-|------10--9-|------10--9-|------10--9-|------10--9-|------10--9-|
A|------------|------------|------------|------------|------------|------------|
E|------------|------------|------------|------------|------------|------------|

   C                         F
e|------------|------------|------------|------------|
B|-8----------|-8----------|-8----------|-8----------|
G|----9-------|----9-------|----9-------|----9-------|
D|------10--9-|------10--9-|------10--9-|------10--9-|
A|------------|------------|------------|------------|
E|------------|------------|------------|------------|


[Verse 2]

C          F               Em
  We were sitting in your room, woah~
C        F               Em
  And I wanted to leave soon, woah~
C          F              Em
  but you had to kiss me first, woah~
C           F                 Em
  But in my head I thought of her, woah~

[Chorus]

C    Em   G                         C
            I'm not making out with you
Em   G                            C
        Even though I think your cute
Em   G                          C
        I'm not making out with you
Em   G                              C
        Cause you always make me blue

   C                         F                         C
e|------------|------------|------------|------------|------------|------------|
B|-8----------|-8----------|-8----------|-8----------|-8----------|-8----------|
G|----9-------|----9-------|----9-------|----9-------|----9-------|----9-------|
D|------10--9-|------10--9-|------10--9-|------10--9-|------10--9-|------10--9-|
A|------------|------------|------------|------------|------------|------------|
E|------------|------------|------------|------------|------------|------------|
   F                         C                         F
e|------------|------------|------------|------------|------------|------------|
B|-8----------|-8----------|-8----------|-8----------|-8----------|-8----------|
G|----9-------|----9-------|----9-------|----9-------|----9-------|----9-------|
D|------10--9-|------10--9-|------10--9-|------10--9-|------10--9-|------10--9-|
A|------------|------------|------------|------------|------------|------------|
E|------------|------------|------------|------------|------------|------------|

   C                         F                         C
e|------------|------------|------------|------------|------------|
B|-8----------|-8----------|-8----------|-8----------|-8~---------|
G|----9-------|----9-------|----9-------|----9-------|------------|
D|------10--9-|------10--9-|------10--9-|------10--9-|------------|
A|------------|------------|------------|------------|------------|
E|------------|------------|------------|------------|------------|

            
            
Suggest correction
Creating personal tab
Creating personal tab
You can edit any tab online and save it as your Personal.

You can edit, replace or remove any tab part or add personal notes – all changes will be seen only by you.

Personal tabs can be accessed anytime from any device, even offline.
Learn more »
comments
print report bad tab
guest
You may want to rate the tab now too:
select rating
Wanna post a correction for this tab? Suggest correction