Oops, an error
Loading. Please wait.

The Strange And The Kind tab

706 views 39 this week
2 commentsread comments
1 2 3 4 5
x 4
add to favorites
×
Save as Personal and add changes to this tab that will be seen only by you. Learn more ›
×
You can save this tab as Personal to edit and correct it or add notes. All changes will be seen only by you. Learn more »
launch autoscroll
font size
0
reset
how to read this tab
guitar tuner
edit
Autoscroll
slow
fast
+/-
esc
set tempo
stop
Author
Difficulty
About this tab version
Contains full write out of song. Was this info helpful? Yes No
Tabbed by J (and "sputnickfive"

Lyrics

Verse 1 
G
Oh I wish we 
                  D
had a little more on time
G
Cause today
                    D
Are just days for the rest of our live

Chorus 
C
And if you leave
           G     FM
they will leave you behind
C          
And if you stay 
           G     FM
will scare out your mind
C
Cause I thought that I'd know
        G           FM
Everyday by this time
G
But I'll be dazed and confused
C
All my life

Verse 2 
G
Oh I wish we
        D
Could stay out of light
G          
Put the wind through our hair 
     D
as we drive

Chorus
C
For the years are 
            G     Fm
the strange and the kind
C
And the chain that never cares 
       G           FM
when we lie
C
Cause I thought that I'd know everything 
   G       FM
by this time
G                   C
Cause I'll be dazed and confused
G                     C
Oh I'll be dazed and confused all my life


[Verse]
Rhythm
   G                                D
e|-3-3-3-3-3-3-3-3-3-3-3-3-3-3-3-3----------------------------------|
B|-3-3-3-3-3-3-3-3-3-3-3-3-3-3-3-3--7-7-7-7-7-7-7-7-7-7-7-7-7-7-7-7-|
G|-4-4-4-4-4-4-4-4-4-4-4-4-4-4-4-4--7-7-7-7-7-7-7-7-7-7-7-7-7-7-7-7-| x 4 
D|-5-5-5-5-5-5-5-5-5-5-5-5-5-5-5-5--7-7-7-7-7-7-7-7-7-7-7-7-7-7-7-7-|
A|-5-5-5-5-5-5-5-5-5-5-5-5-5-5-5-5--5-5-5-5-5-5-5-5-5-5-5-5-5-5-5-5-|
E|-3-3-3-3-3-3-3-3-3-3-3-3-3-3-3-3----------------------------------|


Lead that plays during Rhythm (tab credit to "sputnickfive"
   G               D
e|-------------------------------------|
B|-----3-------3--------5---------5----|
G|---4---4---4---4----2---2-----2---2--| x 4
D|-5-------5-------4---------4---------|
A|-------------------------------------|
E|-------------------------------------|


[Chorus]
Rhythm
   C                                                G                Fm
e|-8--8--8--8--8--8--8--8--8--8--8--8--8--8--8--8---3-3-3-3-3-3-3-3--2-2-2-2-2-2-2-2-|
B|-8--8--8--8--8--8--8--8--8--8--8--8--8--8--8--8---3-3-3-3-3-3-3-3--2-2-2-2-2-2-2-2-|
G|-9--9--9--9--9--9--9--9--9--9--9--9--9--9--9--9---4-4-4-4-4-4-4-4--2-2-2-2-2-2-2-2-| x 3
D|-10-10-10-10-10-10-10-10-10-10-10-10-10-10-10-10--5-5-5-5-5-5-5-5--4-4-4-4-4-4-4-4-|
A|-10-10-10-10-10-10-10-10-10-10-10-10-10-10-10-10--5-5-5-5-5-5-5-5--4-4-4-4-4-4-4-4-|
E|-8--8--8--8--8--8--8--8--8--8--8--8--8--8--8--8---3-3-3-3-3-3-3-3--2-2-2-2-2-2-2-2-|

Lead played during (tab credit to "sputnickfive")
  C                G        Fm
e|---------------------------------------|
B|-----3-------3--------5---------5------|
G|---4---4---4---4----2---2-----2---2----| x 3 
D|-5-------5-------4---------4-----------|
A|---------------------------------------|
E|---------------------------------------|

Rhythm 
End chorus with these two chords with a break in between
e|-8-----3---------------------------------------------------------------------|
B|-8-----3---------------------------------------------------------------------|
G|-9-----4---------------------------------------------------------------------| x 1
D|-10----5---------------------------------------------------------------------|
A|-10----5---------------------------------------------------------------------|
E|-8-----3---------------------------------------------------------------------|
 

            
            
Suggest correction
Creating personal tab
Creating personal tab
You can edit any tab online and save it as your Personal.

You can edit, replace or remove any tab part or add personal notes – all changes will be seen only by you.

Personal tabs can be accessed anytime from any device, even offline.
Learn more »
comments
print report bad tab
2 comments total.
+1 reply
sputnikfive 140 Jul 12, 2017 08:54 AM

e|---------------------------------------|
B|-----3-------3--------5---------5------|
G|---4---4---4---4----2---2-----2---2----|
D|-5-------5-------4---------4-----------|
A|---------------------------------------|
E|---------------------------------------|

the rhythm sounds more like this imo

guest
You may want to rate the tab now too:
select rating
Wanna post a correction for this tab? Suggest correction