Oops, an error
Loading. Please wait.

My Wave Bass Tab

16 views 1 this week
no commentswrite comment
1 2 3 4 5
3 more votes to show rating
add to favorites
launch autoscroll
font size
0
reset
guitar tuner
Autoscroll
slow
fast
+/-
esc
set tempo
stop
Help us to improve Ultimate-Guitar.com Take our survey!
×
Author
Difficulty
intermediate
About this tab version
My first bass tab and my second tab contribution to UG. Time to give back. The Surf Punks were a blast and this song rocks so I was surprised to find no tabs, bass or guitar. This is the first. Was this info helpful? Yes No
Surf Punks - My Wave

Tuning: standard


[Intro]

(drums and burping, then bass)
G|---------------------------------------------------------------| 
D|---------------------------------------------------------------| 
A|---------------------------------------------------------------| 
E|-3-/-7--12-\-7--0----------------------------------------------| 
 

[Verse 1]

G|---------------------------------------------------------------| 
D|---------------------------------------------------------------| 
A|---------------------------------------------------------------| 
E|-7--7-7-7--3--3-3-3--7-7-7-7-7--3-3-2-2-2--7-7-7-7-7--3-3-2-2-2| 

G|---------------------------------------------------------------| 
D|---------------------------------------------------------------| 
A|---------------------------------------------------------------| 
E|-0-0-0-0-0-0-0-0-0-0-0-0-0-0-0-0-2-2-2-2-2-2-2-2-2-2-2-2-2-2-2-| 


[Chorus]

G|---------------------------------------------------------------| 
D|---------------------------------------------------------------| 
A|-----6-6-9-9-6-6-------4-4-7-7---------------------------------| 
E|-7-7---------------5-5---------5-5-----------------------------|(x4)


[Verse 2]

G|---------------------------------------------------------------| 
D|---------------------------------------------------------------| 
A|---------------------------------------------------------------| 
E|-7--7-7-7--3--3-3-3--7-7-7-7-7--3-3-2-2-2--7-7-7-7-7--3-3-2-2-2| 

G|---------------------------------------------------------------| 
D|---------------------------------------------------------------| 
A|---------------------------------------------------------------| 
E|-0-0-0-0-0-0-0-0-0-0-0-0-0-0-0-0-2-2-2-2-2-2-2-2---------------| 


[Chorus]

G|---------------------------------------------------------------| 
D|---------------------------------------------------------------| 
A|-----6-6-9-9-6-6-------4-4-7-7---------------------------------| 
E|-7-7---------------5-5---------5-5-----------------------------|(x4)


[Verse 3]

G|---------------------------------------------------------------| 
D|---------------------------------------------------------------| 
A|---------------------------------------------------------------| 
E|-7--7-7-7--3--3-3-3--7-7-7-7-7--3-3-2-2-2--7-7-7-7-7--3-3-2-2-2| 

G|---------------------------------------------------------------| 
D|---------------------------------------------------------------| 
A|---------------------------------------------------------------| 
E|-0-0-0-0-0-0-0-0-0-0-0-0-0-0-0-0-2-2-2-2-2-2-2-2-----2-2-------| 


[Breakdown]

(1:12 - 1:35)
(Not fully tabbed 'cause it's kinda gnarly, dude.
Mostly drum solo. Just hit some of the notes randomly until)

G|---------------------------------------------------------------| 
D|---------------------------------------------------------------| 
A|---------------------------------------------------------------| 
E|-7-7-7-5--7-7-7-11-11-11-14-14-17-17-19--0-7-7-----------------| 


[Chorus]

G|---------------------------------------------------------------| 
D|---------------------------------------------------------------| 
A|-----6-6-9-9-6-6-------4-4-7-7---------------------------------| 
E|-7-7---------------5-5---------5-5-----------------------------|(x4)


[Verse 4]

G|---------------------------------------------------------------| 
D|---------------------------------------------------------------| 
A|---------------------------------------------------------------| 
E|-7--7-7-7--3--3-3-3--7-7-7-7-7--3-3-2-2-2--7-7-7-7-7--3-3-2-2-2| 

G|---------------------------------------------------------------| 
D|---------------------------------------------------------------| 
A|---------------------------------------------------------------| 
E|-0-0-0-0-0-0-0-0-0-0-0-0-0-0-0-0-2-2-2-2-2-2-2-2---------------|

G|---------------------------------------------------------------| 
D|---------------------------------------------------------------| 
A|---------------------------------------------------------------| 
E|-7--7-7-7--3--3-3-3--7-7-7-7-7--3-3-2-2-2--7-7-7-7-7--3-3-2-2-2| 

G|---------------------------------------------------------------| 
D|---------------------------------------------------------------| 
A|---------------------------------------------------------------| 
E|-0-0-0-0-0-0-0-0-0-0-0-0-0-0-0-0-2-2-2-2-2-2-2-2---------------|


[Outro]

G|---------------------------------------------------------------| 
D|---------------------------------------------------------------| 
A|---------------------------------------------------------------| 
E|-7-7-7-7-7--3-3-3-3-3--7-7-7-7-7--3-3-3-3-3--------------------| 

G|---------------------------------------------------------------| 
D|---------------------------------------------------------------| 
A|---------------------------------------------------------------| 
E|-7-7-7--3-3-3--7-7-7--3-3-3--7-7-7--3-3-3--7-7-7--3-3-3--------| 

G|---------------------------------------------------------------| 
D|---------------------------------------------------------------| 
A|---------------------------------------------------------------| 
E|-0-0-0-0-0-0-0-0-0-0-0-0-0-0-0-0-2-2-2-2-2-2-2-2---------------|  


LYRICS

This is my wave baby
Don't cut me off
Dropping down left
Eat the rocks

My waves baby
Gonna break your face
Go back to the Valley
And don't come back

My waves baby
Gonna break your face
Go back to the Valley
And don't come back

My wave
This is my wave
My wave

My wave
This is my wave
My wave

My wave
My wave
My wave
My wave

MUSIC VIDEO
https://www.youtube.com/watch?v=gHqanWGr_EE

WHO WERE THE SURF PUNKS?
https://en.wikipedia.org/wiki/Surf_Punks



************************************

| /  Slide up
| \  Slide down

************************************
Suggest correction
Give kudos to tab author, rate the tab!
1 2 3 4 5
comments
print report bad tab
guest
You may want to rate the tab now too:
select rating
Wanna post a correction for this tab? Suggest correction