Oops, an error
Loading. Please wait.

Catholic Pagans Tab

7,366 views 6 this week
no commentswrite comment
1 2 3 4 5
excellent!
x 6
add to favorites
launch autoscroll
font size
0
reset
how to read this tab
guitar tuner
Tab Pro tools
  • play this tab
  • loop segment
  • change instrument
  • show fretboard
  • metronome
×
Best way to learn
"Catholic Pagans"
Autoscroll
slow
fast
+/-
esc
set tempo
stop
Contributor
Difficulty
intermediate
-------------------------------------------------------------------------------
     Catholic Pagans - Surfer Blood
-------------------------------------------------------------------------------
Tabbed by: Oliver John Jek
Date: Monday, April 9, 2010
Email: sanjuro33@gmail.com

Tuning: Standard
Key: C major

Intro:
      C                      Am                     E                      F       G
e|----------------------|----------------------|----------------------|-------1-------3------|
B|-----------1----------|-----------1----------|----------------------|-------1-------3------|
G|----------0---0-------|----------2---2-------|-----------1----------|-------2-------4------|
D|---------2-------2----|---------2-------2----|----------2---2-------|-------3-------5------|
A|----3---3-------------|----0---0-------------|---------2-------2----|-------3-------5------|
E|----------------------|----------------------|----0---0-------------|----1--1---/3--3------| x2

On the second time the lead guitar plays:
  All tremelo picked
e|----8-----------------|----12----------------|----15----------------|----17--15--17--15----|
B|----------------------|----------------------|----------------------|----------------------|
G|----------------------|----------------------|----------------------|----------------------|
D|----------------------|----------------------|----------------------|----------------------|
A|----------------------|----------------------|----------------------|----------------------|
E|----------------------|----------------------|----------------------|----------------------|

Verse:
      C                      Am                     E                      F       G
e|----------------------|----------------------|----------------------|----------------------|
B|----------------------|----------------------|----------------------|----------------------|
G|----------------------|----------------------|----------------------|----------------------|
D|--------5------5------|----------------------|----------------------|----------------------|
A|----33----333----3----|--------7------7------|--------2------2------|--------3-------5-----|
E|----------------------|----55----555----5----|----00----000----0----|----11----1-33----3---|

e|----------------------|----------------------|----------------------|----------------------|
B|----------------------|----------------------|----------------------|----------------------|
G|----------------------|----------------------|----------------------|----------------------|
D|--------5------5------|----------------------|----------------------|----------------------|
A|----33----333----3----|--------7------7------|--------2------2------|--------3-------5-----|
E|----------------------|----55----555----5----|----00----000----0----|----11----1-33----3---|
  *** Lead comes in here
e|----------------------|----------------------|----------------------|----------------------|
B|----------------------|----------------------|----------------------|----------------------|
G|----------------------|----------------------|----------------------|----------------------|
D|--------5------5------|------------5---------|----------------------|----------------------|
A|----33----333----3----|--------7-----7-5-7---|--------2------2------|--------3-------5-----|
E|----------------------|----55----5-----------|----00----000----0----|----11----1-33----3---|

e|----------------------|----------------------|----------------------|----------------------|
B|----------------------|----------------------|----------------------|----------------------|
G|----------------------|----------------------|----------------------|----------------------|
D|--------5------5------|----------------------|----------------------|----------------------|
A|----33----333----3----|--------7------7------|--------2------2------|--------3-------5-----|
E|----------------------|----55----555----5----|----00----000----0----|----11----1-33----3---|


Lead for Verse
***
e|-------12-----12--12--|-------12-----12--12--|-------12-----12--12--|----12----12-15-12--12|
B|----13---13-----13----|----13---13-----13----|----13---13-----13----|-13---13----------15--|
G|----------------------|----------------------|----------------------|----------------------|
D|----------------------|----------------------|----------------------|----------------------|
A|----------------------|----------------------|----------------------|----------------------|
E|----------------------|----------------------|----------------------|----------------------|

Chorus:
  I don't wanna be a catholic pagan now that you are here...
e|--3-3-x-x-7-7-x-x-----|--8--8---x-x--10-10---|
B|--5-5-x-x-9-9-x-x-----|--10-10--x-x--12-12---|
G|--5-5-x-x-9-9-x-x-----|--10-10--x-x--12-12---|
D|--5-5-x-x-9-9-x-x-----|--10-10--x-x--12-12---|
A|--3-3-x-x-7-7-x-x-----|--8--8---x-x--10-10---|
E|----------------------|----------------------|

Post Chorus:
  This is played over the verse riff 
e|----------------------|----------------------|----------------------|----------------------|
B|----8-----------------|----------------------|----8-----------------|----------------------|
G|------9-7-9-7---------|-----7----------------|------9-7-9-7---------|-----7-----------12---|
D|----------------10----|--10---10-7--/10-10---|----------------10----|--10---10-7--/10-10---|
A|----------------------|----------------------|----------------------|----------------------|
E|----------------------|----------------------|----------------------|----------------------|

e|----------------------|----------------------|----------------------|----------------------|
B|----8-----------------|----------------------|----8-----------------|----------------------|
G|------9-7-9-7---------|-----7----------------|------9-7-9-7---------|-----7----------------|
D|----------------10----|--10---10-7--/10-10---|----------------10----|--10---10-7--/10-10---|
A|----------------------|----------------------|----------------------|----------------------|
E|----------------------|----------------------|----------------------|----------------------|



Verse

Chorus



Outro:

  Sorry we have to go...
e|--3-3-3-3-7-7-7-7-----|--8--8---8--8--10-10--|--3-3-3-3-7-7-7-7-----|--8--8---8--8--10-10--|
B|--5-5-5-5-9-9-9-9-----|--10-10--10-10-12-12--|--5-5-5-5-9-9-9-9-----|--10-10--10-10-12-12--|
G|--5-5-5-5-9-9-9-9-----|--10-10--10-10-12-12--|--5-5-5-5-9-9-9-9-----|--10-10--10-10-12-12--|
D|--5-5-5-5-9-9-9-9-----|--10-10--10-10-12-12--|--5-5-5-5-9-9-9-9-----|--10-10--10-10-12-12--|
A|--3-3-3-3-7-7-7-7-----|--8--8---8--8--10-10--|--3-3-3-3-7-7-7-7-----|--8--8---8--8--10-10--|
E|----------------------|----------------------|----------------------|----------------------|

e|--3-3-3-3-7-7-7-7-----|--8--8---8--8--10-10--|--3-3-3-3-7-7-7-7-----|--8--8---8--8--10-10--|
B|--5-5-5-5-9-9-9-9-----|--10-10--10-10-12-12--|--5-5-5-5-9-9-9-9-----|--10-10--10-10-12-12--|
G|--5-5-5-5-9-9-9-9-----|--10-10--10-10-12-12--|--5-5-5-5-9-9-9-9-----|--10-10--10-10-12-12--|
D|--5-5-5-5-9-9-9-9-----|--10-10--10-10-12-12--|--5-5-5-5-9-9-9-9-----|--10-10--10-10-12-12--|
A|--3-3-3-3-7-7-7-7-----|--8--8---8--8--10-10--|--3-3-3-3-7-7-7-7-----|--8--8---8--8--10-10--|
E|----------------------|----------------------|----------------------|----------------------|

e|--3-3-3-3-7-7-7-7-----|--8--8---8--8--10-10--|--3-3-3-3-7-7-7-7-----|--8--8---8--8--10-10--|
B|--5-5-5-5-9-9-9-9-----|--10-10--10-10-12-12--|--5-5-5-5-9-9-9-9-----|--10-10--10-10-12-12--|
G|--5-5-5-5-9-9-9-9-----|--10-10--10-10-12-12--|--5-5-5-5-9-9-9-9-----|--10-10--10-10-12-12--|
D|--5-5-5-5-9-9-9-9-----|--10-10--10-10-12-12--|--5-5-5-5-9-9-9-9-----|--10-10--10-10-12-12--|
A|--3-3-3-3-7-7-7-7-----|--8--8---8--8--10-10--|--3-3-3-3-7-7-7-7-----|--8--8---8--8--10-10--|
E|----------------------|----------------------|----------------------|----------------------|

e|--3-3-3-3-7-7-7-7-----|--8--8---8--8--10-10--|--3-3-3-3-7-7-7-7-----|--8--8---8--8--10-10--|
B|--5-5-5-5-9-9-9-9-----|--10-10--10-10-12-12--|--5-5-5-5-9-9-9-9-----|--10-10--10-10-12-12--|
G|--5-5-5-5-9-9-9-9-----|--10-10--10-10-12-12--|--5-5-5-5-9-9-9-9-----|--10-10--10-10-12-12--|
D|--5-5-5-5-9-9-9-9-----|--10-10--10-10-12-12--|--5-5-5-5-9-9-9-9-----|--10-10--10-10-12-12--|
A|--3-3-3-3-7-7-7-7-----|--8--8---8--8--10-10--|--3-3-3-3-7-7-7-7-----|--8--8---8--8--10-10--|
E|----------------------|----------------------|----------------------|----------------------|
  Hold chord
e|--8-------------------|
B|--8-------------------|
G|--9-------------------|
D|--10------------------|
A|--10------------------|
E|--8-------------------|

Play this over the outro chords
e|-------------------------------------------------------|
B|-------------------------------------------------------|
G|-----------------14-16-17-19-17-16-14------------------|
D|-----12-14-15-17----------------------17-15-14-12------|
A|--15----------------------------------------------(15*)|
E|-------------------------------------------------------|x4 *Hold out this note to end

| /  slide up
| \  slide down
| h  hammer-on
| p  pull-off
| ~  vibrato
| +  harmonic
| x  Mute note
=============================================================================================
comments
print report bad tab
I want to post or [tab]
guest
You may want to rate the tab now too:
select rating
Please do not post tabs as comments. Select "correction" instead!