Oops, an error
Loading. Please wait.

Prom Song Tab

88 views 3 this week
no commentswrite comment
1 2 3 4 5
2 more votes to show rating
add to favorites
launch autoscroll
font size
0
reset
how to read this tab
guitar tuner
Autoscroll
slow
fast
+/-
esc
set tempo
stop
Help us to improve Ultimate-Guitar.com Take our survey!
×
Author
Difficulty
novice
Artist: Surfer Blood
Album: Pythons
Tabbed by: Dezman

Verse structure goes A-B-A-B

[Intro] x4
e|-4--4----8--8--8--8-----------------------------------------------|
B|-4--4----9--9--11-9-----------------------------------------------|
G|-5--5----8--8--8--8-----------------------------------------------|
D|-6--6----10-10-10-10----------------------------------------------|
A|-4--4----8--8--8--8-----------------------------------------------|
E|-4--4-------------------------------------------------------------|



[Verse]

Guitar 1, verse part A
"You tell me things aren't fair..."
e|-4--4----8--8--8--8-----------------------------------------------|
B|-4--4----9--9--11-9-----------------------------------------------|
G|-5--5----8--8--8--8-----------------------------------------------|
D|-6--6----10-10-10-10----------------------------------------------|
A|-4--4----8--8--8--8-----------------------------------------------|
E|-4--4-------------------------------------------------------------|

Verse part B
then what sounds like this strummed a few times
"Well I know it's not true..."
e|------------------------------------------------------------------|
B|-9----------------------------------------------------------------|
G|-10---------------------------------------------------------------|
D|-10---------------------------------------------------------------|
A|-x----------------------------------------------------------------|
E|-9----------------------------------------------------------------|

then back to part A 


Guitar 2 - Verse part a
"You tell me things aren't fair..."
e|------------------------------------------------------------------|
B|------------------------------------------------------------------|
G|------------8---10-8------------------8---10-8--------------------|
D|-8/10-10--10--10-----10---8/10-10--10---10----10------------------|
A|------------------------------------------------------------------|
E|------------------------------------------------------------------|

e|------------------------------------------------------------------|
B|------------------------------------------------------------------|
G|------------8---10-8------------------8---10/12--10\8-----8-------|
D|-8/10-10--10--10-----10---8/10-10--10---10-------------10---10----|
A|------------------------------------------------------------------|
E|------------------------------------------------------------------|

Verse part B
"Well I know it's not true..."
e|------------------------------------------------------------------|
B|------------------------------------------------------------------|
G|------------------------------------------------------------------|
D|-6/8-8-8-8\6-6-6-6/8-8-8-8\6-6-6-6/8-8-8-8\6-6-6-6/8-8-8-8h10-8---|
A|------------------------------------------------------------------|
E|------------------------------------------------------------------|


[Chorus]

G#, Fm, G#, Fm, C#, C#m

[Post-chorus]
 The same chords from the chorus are played as the 2nd guitar plays this
e|---4----6--4--------1---3--1----------4----6--4------1--3-1-------|
B|---4---------6------1--------4--------4---------6----1------4-----|
G|-5-5-------------1--1--------------5--5------------1-1------------|
D|---6----------------3-----------------6--------------3------------|
A|------------------------------------------------------------------|
E|------------------------------------------------------------------|

e|-----4-------4-------4----6/8--6\4-----4------4----7-6-4----------|
B|-6-6---6---6---6---6---6-------------5---5--5---5--------5\-------|
G|------------------------------------------------------------------|
D|------------------------------------------------------------------|
A|------------------------------------------------------------------|
E|------------------------------------------------------------------|

then the intro riff returns with 2nd playing 
e|------------------------------------------------------------------|
B|------------------------------------------------------------------|
G|------------------------------------------------------------------|
D|-8/10-10--10-10-10-11-10-8-10--10----10^---10h11-11/13--11-10-----|
A|----------------------------------8^-----8------------------------|
E|------------------------------------------------------------------|

e|---------------------------------------8-------/11--8-------------|
B|----------------------------------9---------9---------------------|
G|------------------------------/10---10---10-----------------------|
D|----10^---10h11-11/13--11-10--------------------------------------|
A|------------------------------------------------------------------|
E|-8^-----8---------------------------------------------------------|


[2nd verse is the same as the first]
[Chorus]
[Bridge is just the same chords from the chorus]

e|------------------------------------------------------------------|
B|------------------------------------------------------------------|
G|------------------------------------------------------------------|
D|---11--10--8--6--6~-----------------------------------------------|
A|-----------------6~-----------------------------------------------|
E|-----------------4~-----------------------------------------------|


Enjoy and feel free to correct mistakes or suggest improvements :)

Suggest correction
Give kudos to tab author, rate the tab!
1 2 3 4 5
comments
print report bad tab
guest
You may want to rate the tab now too:
select rating
Wanna post a correction for this tab? Suggest correction