Oops, an error
Loading. Please wait.

Indigo Girl tab

52 views 3 this week
no commentswrite comment
1 2 3 4 5
x 3
add to favorites
×
Save as Personal and add changes to this tab that will be seen only by you. Learn more ›
×
You can save this tab as Personal to edit and correct it or add notes. All changes will be seen only by you. Learn more »
launch autoscroll
font size
0
reset
how to read this tab
guitar tuner
edit
Autoscroll
slow
fast
+/-
esc
set tempo
stop
About this tab version
This is the correct way to play "Indigo Girl," by Survival Kit. I wrote the music. Was this info helpful? Yes No
Indigo Girl - Survival Kit (3:01)

Written by Survival Kit
Tracked, Mixed, and Mastered @ AP Audio with Aaron Pace
Released October 2016 on Survival Kit's Debut EP - "Hard Work and Dedication"

Video Link: https://www.youtube.com/watch?v=J4O18_LAgi0

Survival Kit Website: https://www.survivalkitofficial.com/
IG Handle: @survivalkitofficial
Twitter Handle: SurvivalKitGA
FB: https://www.facebook.com/survivalkitband

[Intro]
D|------------------|-----------------------------------------------------------|
A|-0~-0~-X--X--X--X-|--0~-0~-X--X--X--------------------------------------------|
F|-4~-6~-11-11-9--8-|\-4~-6~-4--11-8--------------------------------------------|
C|-4~-4~-X--X--X--X-|\-4~-4~-X--X--X--------------------------------------------|
G|-X~-X~-9--9--7--6-|\-X~-X~-2--9--6--------------------------------------------|
D|-4~-6~-0--0--0--0-|\-4~-6~-0--0--0--------------------------------------------|

[Verse]
D|---------|---------|---------------|------------------------------------------|
A|-0~-0~---|-0~-0----|-0~-0~-X--X--X-|-0~-0~------------------------------------|
F|-4~-6~---|-4~-6~---|-4~-6~-4--11-8-|-4~-6~------------------------------------|
C|-4~-4~-4~|-4~-4~-4~|-4~-4~-X--X--X-|-4~-4~-4~---------------------------------|
G|-X~-X~-2~|-X~-X~-2~|-X~-X~-2--9--6-|-X~-X~-2~---------------------------------|
D|-4~-6~-0~|-4~-6~-0~|-4~-6~-0--0--0-|-4~-6~-0~---------------------------------|

[Chorus]
D|-7~--0~--4~--2~---------------------------------------------------------------|
A|-7~--0~--4~--2~---------------------------------------------------------------|
F|-8~--1~--4~--3~---(x2)--------------------------------------------------------|
C|-9~--2~--6~--4~---------------------------------------------------------------|
G|-9~--2~--6~--4~---------------------------------------------------------------|
D|-7~--0~--4~--2~---------------------------------------------------------------|

[Intro]
D|------------------|-----------------------------------------------------------|
A|-0~-0~-X--X--X--X-|--0~-0~-X--X--X--------------------------------------------|
F|-4~-6~-11-11-9--8-|\-4~-6~-4--11-8--------------------------------------------|
C|-4~-4~-X--X--X--X-|\-4~-4~-X--X--X--------------------------------------------|
G|-X~-X~-9--9--7--6-|\-X~-X~-2--9--6--------------------------------------------|
D|-4~-6~-0--0--0--0-|\-4~-6~-0--0--0--------------------------------------------|

[Verse 2]
(Same as Verse 1)
D|---------|---------|---------------|------------------------------------------|
A|-0~-0~---|-0~-0----|-0~-0~-X--X--X-|-0~-0~------------------------------------|
F|-4~-6~---|-4~-6~---|-4~-6~-4--11-8-|-4~-6~------------------------------------|
C|-4~-4~-4~|-4~-4~-4~|-4~-4~-X--X--X-|-4~-4~-4~---------------------------------|
G|-X~-X~-2~|-X~-X~-2~|-X~-X~-2--9--6-|-X~-X~-2~---------------------------------|
D|-4~-6~-0~|-4~-6~-0~|-4~-6~-0--0--0-|-4~-6~-0~---------------------------------|

[VERSE 2 Tie In]
"In the back of her mind..."
D|-------------------|---0~---------------------------------------------------|
A|-------------------|---0~---------------------------------------------------|
F|----4---4---4---4--|/--9~---------------------------------------------------|
C|---4-4-4-4-4-4-4-4-|/--9~---------------------------------------------------|
G|----------2---4----|/--7~---------------------------------------------------|
D|-4----2------------|--------------------------------------------------------|

[Chorus]
D|-7~--0~--4~--2~------------------------------------------------------------|
A|-7~--0~--4~--2~------------------------------------------------------------|
F|-8~--1~--4~--3~---(x2)-----------------------------------------------------|
C|-9~--2~--6~--4~------------------------------------------------------------|
G|-9~--2~--6~--4~------------------------------------------------------------|
D|-7~--0~--4~--2~------------------------------------------------------------|

[Bridge]
"Vulnerable..Woah Oh..Woah Oh.."
D|------0~---------0~--------0~----------------------------------------------|
A|------0~---------0~--------0~----------------------------------------------|
F|------1~---------6~--------4~----(x3)--------------------------------------|
C|------2~---------6~--------4~----------------------------------------------|
G|------2~---------4~--------2~----------------------------------------------|
D|------0~-------------------------------------------------------------------|

[Outro]
"But I know...You don't."
D|-----0~-----0~-------------------------------------------------------------|
A|-----0~-----0~-------------------------------------------------------------|
F|-----9~-----8~-------------------------------------------------------------|
C|-----9~-----9~-------------------------------------------------------------|
G|-----7~-----7~-------------------------------------------------------------|
D|---------------------------------------------------------------------------|


************************************
LEGEND

| /   Slide up
| ~   Strumming (Unsure of how to tab)
| X   Muted String
|(x)  Play section through the number of times shown

************************************

            
            
Suggest correction
Creating personal tab
Creating personal tab
You can edit any tab online and save it as your Personal.

You can edit, replace or remove any tab part or add personal notes – all changes will be seen only by you.

Personal tabs can be accessed anytime from any device, even offline.
Learn more »
Give kudos to tab author, rate the tab!
1 2 3 4 5
comments
print report bad tab
guest
You may want to rate the tab now too:
select rating
Wanna post a correction for this tab? Suggest correction