Oops, an error
Loading. Please wait.

Burning Heart Bass Tab

version 1
version 1

Whole song

Interactive

4,643 views 18 this week
no commentswrite comment
1 2 3 4 5
please rate
add to favorites
launch autoscroll
font size
0
reset
guitar tuner
Autoscroll
slow
fast
+/-
esc
set tempo
stop
Help us to improve Ultimate-Guitar.com Take our survey!
×
|------(7x)-|-----------|----|---------|------------|-----------|---------|
|*---------*|-----------|----|---------|------------|*---------*|---------|
|*---------*|-----------|----|---------|-------320--|*---------*|---------|
|--5-5-5-5--|-5-5-5-5-1-|-1--|-5-5-5-5-|-5-5-5----2-|--5-5-5-5--|-3-3-3-3-|
              1 2 3 4 +   1              1 2 3 4e+e

|---------|-----------|---------|---------|---------|--------|-----------|-r-|
|---------|*---------*|---------|---------|---------|--------|-----------|-e-|
|---------|*---------*|---------|---------|---------|--------|-----------|-s-|
|-1-1-1-1-|--5-5-5-5--|-3-3-3-3-|-0---5-3-|-1---1-1~|-~~---/-|-13---1-1--|-t-|
                                  1   3 4   1   4 +        4   1     4 +

|------|---------------|------(3x)-|-----------|---------|---------|---------|
|------|---------------|*---------*|-----------|---------|---------|---------|
|------|---------------|*---------*|-------3-2-|---------|-----3-2-|---------|
|-1--1-|-1-1-1-1-1-3-3-|--5-5-5-5--|-5-5-0-----|-5-5-1-1-|-3-3-----|-5-5-1-1-|
  1  3   1 + 2 + 3 + 4               1 2 3 4 +

|-----|-----------|-----------|----|-----------|---------|---------|-----------|
|-----|*---------*|-----------|----|*---------*|---------|---------|*---------*|
|-----|*---------*|-----------|----|*---------*|---------|---------|*---------*|
|-3-3-|--5-5-5-5--|-5-5-5-5-1-|-1--|--5-5-5-5--|-3-3-3-3-|-1-1-1-1-|--5-5-5-5--|
  1 2               1 2 3 4 +   1


|---------|---------|---------|--------|-----------|-r-|------|---------------|
|---------|---------|---------|--------|-----------|-e-|------|---------------|
|---------|---------|---------|--------|-----------|-s-|------|---------------|
|-3-3-3-3-|-0---5-3-|-1---1-1~|-~~---/-|-13---1-1--|-t-|-1--1-|-1-1-1-1-1-3-3-|
            1   3 4   1   4 +        4   1     4 +       1  3   1 + 2 + 3 + 4

|------(3x)-|-----------|---------|---------|---------|-----|---------|
|*---------*|-----------|---------|---------|---------|-----|-------2-|
|*---------*|-------3-2-|---------|-----3-2-|---------|-----|-----5---|
|--5-5-5-5--|-5-5-0-----|-5-5-1-1-|-3-3-----|-5-5-1-1-|-3-3-|-5-------|
              1 2 3 4 +                                 1 2   1   4 +

|---------|---------|------0--20--|---------|-R-|
|-----2-3-|-----3-5-|-----------2-|---------|-E-|
|---------|---------|-------------|---------|-S-|
|---------|---------|-------------|---5-----|-T-|
      4 +       4 +        di 4e+   1 2 3 4

End
|------(3x)-|-----------|---------|---------|---------|-----|
|*---------*|-----------|---------|---------|---------|-----|
|*---------*|-------3-2-|---------|-----3-2-|---------|-----|  repeat to
|--5-5-5-5--|-5-5-0-----|-5-5-1-1-|-3-3-----|-5-5-1-1-|-3-3-|  fade out
              1 2 3 4 +                                 1 2
Suggest correction
Give kudos to tab author, rate the tab!
1 2 3 4 5
comments
print report bad tab
guest
You may want to rate the tab now too:
select rating
Please do not post tabs as comments. Select "correction" instead!