Oops, an error
Loading. Please wait.

Ever Since The World Began Tab

version 1
version 1

Whole song

Interactive

16,753 views 18 this week
no commentswrite comment
1 2 3 4 5
excellent!
x 3
add to favorites
launch autoscroll
font size
0
reset
how to read this tab
guitar tuner
Autoscroll
slow
fast
+/-
esc
set tempo
stop
Help us to improve Ultimate-Guitar.com Take our survey!
×
Author
SONG: EVER SINCE THE WORLD BEGAN
ARTIST: SURVIVOR
TABBED BY: DAN LESTER CHUA
TUNING: standard EADGBE


this tab is for the people who love this song. I'm not fond of writing tabs but I
love this song so
I tried to do it with my own hands. I've never seen an "accurate" tab of this song, hope you'll 
like it.

not 100%, but it sounds like the real thing.from keys to strings..if there's something wrong,
just fix it..with this pattern it would be very easy.


INTRO:
   A
=-------------------------------------5-4----------------------------|
=----------5----------7-77-7/5-5--5-5-----5-5/7-5--------------------|
=--------6---7-6-7-(6)----------------------------4/6-4--------------|
=-----7-------------------------------------------------6/7----------|
=----7---------------------------------------------------------------|
=--5-----------------------------------------------------------------|


=------------------------------------------|
=-------7-7--5-5-------5-5-----------------|
=--6-6------------7-7-------7-7--6-4-4////-|
=------------------------------------------|
=------------------------------------------|
=------------------------------------------|

stanza:

A-Bm-E-A  (switch to another chord at the end/start of each line of the song)
A-Bm-E-E
A-Bm-E-A (2x)
A-----

chorus:
A---------| (each line here are the chords for every line of the song)
Bm--------|
E---------|
C#m-----A-|

A--------------|
Bm---C#m---Bm--|
Bm---C#m---Bm--|

then,

Ever since the world---------------(I'm not sure about this but it sounds nice to me)
   Bm             E-
=----------2-----------------0------------------------------|
=--------3---3----------- -0---0----------------------------|
=----- 4-------4---------1------1---------------------------|
=---(4)---------------(2)---------2-------------------------|
=-2-----------------2---------------------------------------|
=-----------------0-----------------------------------------|
 began....
=---------5----7-9-5---(5)- (5)-|
=-------5---5-------------(5)---|
=-----0-------------------------|
=--(0)--------------------------|
=-------------------------------|
=-------------------------------|
at the end of the 1st chorus this downward picking stops..just listen for the timing.

bridge:

A-----------C#m------------Bm---------------A (E) 4x


------------------END----------------

"TO GIVE YOUR BEST..RECALL A TIME IN YOUR LIFE WHEN YOU LOST
YOUR EQUILIBRIUM AND FELT SEVERELY DEPRESSED. DID YOU CALL
OUT TO JESUS, WHO ALWAYS HELPS YOU TO CARRY YOUR
CROSS???'' ++++
Suggest correction
Give kudos to tab author, rate the tab!
1 2 3 4 5
comments
print report bad tab
guest
You may want to rate the tab now too:
select rating
Please do not post tabs as comments. Select "correction" instead!