Oops, an error
Loading. Please wait.

Eye Of The Tiger Tab

version 2
version 2
190,051 views 78 this week
52 commentsread comments
1 2 3 4 5
x 50
add to favorites
launch autoscroll
font size
0
reset
how to read this tab
guitar tuner
Autoscroll
slow
fast
+/-
esc
set tempo
stop
Help us to improve Ultimate-Guitar.com Take our survey!
×
Author
-------------------------------------------------------------------------------
                  EYE OF THE TIGER - Survivor
-------------------------------------------------------------------------------
tabbed by: theGuitarman

 
I my opinion the opening note is not on E-8 but rather A-3
(yes same note but the tone sounds more correct)

Standard format EADGBe



[Intro]
(Guitar #1)
e|----------------------------|
B|----------------------------|
G|----------------------------|
D|----------------------------| (you get the idea)
A|-3-3-3-3-3-3-3-3-3-3-3-3-3-3|
E|----------------------------|

[Intro]
(Guitar #2)
e|----------------------------|
B|----------------------------|
G|-5---5-3-5---5-3-5---5-3----|
D|-5---5-3-5---5-3-5---5-3-6~-|
A|-3---3-1-3---3-1-3---3-1-6~-|
E|-------------------------4~-|

e|------------------------------|
B|------------------------------|
G|---5---5-3-5----5-3-5--5-3----|
D|---5---5-3-5----5-3-5--5-3-6~-|
A|---3---3-1-3----3-1-3--3-1-6~-|(note the timing difference)
E|---------------------------4~-|

e|-----3---3~--3---3~--3-------|
B|-----4-3-4~--4-3-4~--4-3-----|
G|-5---5-3-5~--5-3-5~--5-3-5~--|
D|-5---5-3-5~--5-3-5~--5-3-6~--|
A|-3---3-1-3~--3-1-3~--3-1-6~--|
E|-------------------------4~--|

e|-------3---3~--3---3~--3-------------|
B|-------4-3-4~--4-3-4~--4-3-------4\--|
G|---5---5-3-5~--5-3-5~--5-3-5~----5\--|
D|---5---5-3-5~--5-3-5~--5-3-6~----5\--|
A|---3---3-1-3~--3-1-3~--3-1-6~----3\--|
E|---------------------------4~--------|

[Verse]
(Guitar #1)
e|----------------------------|
B|----------------------------|
G|----------------------------|
D|----------------------------| (Played entire verse)
A|-3-3-3-3-3-3-3-3-3-3-3-3-3-3|
E|----------------------------|

[Verse]
(Piano-to-Guitar Translation)
e|--3~-------------3~--|
B|--4~--------3~---4~--|
G|--5~---5~---3~---5~--|
D|--5~---6~---3~---5~--|
A|--3~---6~---1~---3~--| (repeated till Chorus)
E|-------4~------------|

[Chorus]
e|-------------------------------|
B|------------3~-----------4--3~-|
G|-1~----8~---3~-----3~----5--3~-|
D|-3~----8~---3~-----3~----5--3~-|
A|-3~----6~---1~-----3~----3--1~-|
E|-1~----------------1~----------|

e|---------------------------------|
B|--------------3~-----------4--3~-|
G|---1~----8~---3~-----3~----5--3~-|
D|---3~----8~---3~-----3~----5--3~-|
A|---3~----6~---1~-----3~----3--1~-|
E|---1~----------------1~----------|

e|---------------------------|
B|---------------------------|
G|---------------------------|
D|-3---1---3-\-5---3---5-\-6-|
A|---------------------------|
E|---------------------------|

[Outro]
e|-----3---3~--3---3~--3-------|
B|-----4-3-4~--4-3-4~--4-3-----|
G|-5---5-3-5~--5-3-5~--5-3-5~--|
D|-5---5-3-5~--5-3-5~--5-3-6~--|
A|-3---3-1-3~--3-1-3~--3-1-6~--|
E|-------------------------4~--|

e|-------3---3~--3---3~--3-------------|
B|-------4-3-4~--4-3-4~--4-3-------4\--|
G|---5---5-3-5~--5-3-5~--5-3-5~----5\--|
D|---5---5-3-5~--5-3-5~--5-3-6~----5\--| (repeat to fade)
A|---3---3-1-3~--3-1-3~--3-1-6~----3\--|
E|---------------------------4~--------|



************************************
 
~   let note ring
\   slide up the fret
/   slide down the fret

************************************
Suggest correction
comments
print report bad tab
52 comments total. Showing first comments.
+6 reply
roddy1980 10 May 12, 2006 04:48 PM

I'm no pro, but I think this sounds better for the beginning bit:

e|----------------------------|
B|----------------------------|
G|-5---5-3-5---5-3-5---5------|
D|-5---5-3-5---5-3-5---5-5-6~-|
A|-3---3-1-3---3-1-3---3-5-6~-|
E|-----------------------3-4~-|

0 reply
guitar_walshie 10 Jun 04, 2006 11:08 AM

wat are u tlkin about.....its great the way it is....cool tab...nice one!

-2 reply
Discouraged 10 Jun 12, 2006 08:43 AM

With Roddy on this one. It sounds better to me. But I guess it doesnt matter.

guest
You may want to rate the tab now too:
select rating
Wanna post a correction for this tab? Suggest correction