Oops, an error
Loading. Please wait.

Eye Of The Tiger Bass Tab

version 3
version 3

Whole song

Interactive

4,583 views 9 this week
2 commentsread comments
1 2 3 4 5
accurate
x 4
add to favorites
launch autoscroll
font size
0
reset
guitar tuner
Autoscroll
slow
fast
+/-
esc
set tempo
stop
Help us to improve Ultimate-Guitar.com Take our survey!
×
Author
0:08
G|-----------------------------------------------------------------|
D|-----------------------------------------------------------------|
A|-3-r-------------3-r---1-r---3-r-----------------3-r---1-r---3-r-|
E|-----------------------------------------------------------------|
   1 e + a 2 e + a 3 e + a 4 e + a 1 e + a 2 e + a 3 e + a 4 e + a 

G|-----------------------------------------------------------------|
D|-----------------------------------------------------------------|
A|-----------------3-r---------------------------------------------|
E|-----------------------3-r---4-----------------------------------|
   1 e + a 2 e + a 3 e + a 4 e + a 1 e + a 2 e + a 3 e + a 4 e + a

G|-----------------------------------------------------------------|
D|-----------------------------------------------------------------|
A|-3-r-------------3-r---1-r---3-r---------------------3-r---1-r---|
E|-----------------------------------------------------------------|
   1 e + a 2 e + a 3 e + a 4 e + a 1 e + a 2 e + a 3 e + a 4 e + a 

G|-----------------------------------------------------------------|
D|-----------------------------------------------------------------|
A|-3-r-------------3-r---------------------------------------------|
E|-----------------------3-r---4-----------------------------------|
   1 e + a 2 e + a 3 e + a 4 e + a 1 e + a 2 e + a 3 e + a 4 e + a

0:26
G|-----------------------------------------------------------------|
D|-----------------------------------------------------------------|
A|-3-r-----3-r-----3-r-----3-r-----3-r-----3-r-----3-r-----3-r-----|
E|-----------------------------------------------------------------|
   1 e + a 2 e + a 3 e + a 4 e + a 1 e + a 2 e + a 3 e + a 4 e + a 

G|-----------------------------------------------------------------|
D|-----------------------------------------------------------------|
A|-3-r-----3-r-----3-r---------------------------------------------|
E|-----------------------3-4-3-6---4-r-----4-r-----4-r-----4-r-----|
   1 e + a 2 e + a 3 e + a 4 e + a 1 e + a 2 e + a 3 e + a 4 e + a 

G|-----------------------------------------------------------------|
D|-----------------------------------------------------------------|
A|-3-r-----3-r-----3-r-----3-r-----3-r-----3-r-----3-r-----3-r-----|
E|-----------------------------------------------------------------|
   1 e + a 2 e + a 3 e + a 4 e + a 1 e + a 2 e + a 3 e + a 4 e + a 

G|-----------------------------------------------------------------|
D|-----------------------------------------------------------------|
A|-3-r-----3-r-----3-r---------------------------------------------|
E|-----------------------3-4-3-6---4-r-----4-r-----4-r---3-4-r-----|
   1 e + a 2 e + a 3 e + a 4 e + a 1 e + a 2 e + a 3 e + a 4 e + a 

G|-----------------------------------------------------------------|
D|-----------------------------------------------------------------|
A|-3-r-----3-r-----3-r-----3-r-----3-r-----3-r-----3-r-------------|
E|-------------------------------------------------------3-4-3-6---|
   1 e + a 2 e + a 3 e + a 4 e + a 1 e + a 2 e + a 3 e + a 4 e + a 

0:49
G|-----------------------------------------------------------------|
D|-----------------------------------------------------------------|
A|-3-r-----3-r-----3-r-----3-r-----3-r-----3-r-----3-r-----3-r-----|
E|-----------------------------------------------------------------|
   1 e + a 2 e + a 3 e + a 4 e + a 1 e + a 2 e + a 3 e + a 4 e + a 

G|-----------------------------------------------------------------|
D|-----------------------------------------------------------------|
A|-3-r-----3-r-----3-r-----3-r-----3-r-----3-r-----3-r-------------|
E|-------------------------------------------------------3-4-3-6---|
   1 e + a 2 e + a 3 e + a 4 e + a 1 e + a 2 e + a 3 e + a 4 e + a 

G|-----------------------------------------------------------------|
D|-----------------------------------------------------------------|
A|-3-r-----3-r-----3-r-----3-r-----3-r-----3-r-----3-r-----3-r-----|
E|-----------------------------------------------------------------|
   1 e + a 2 e + a 3 e + a 4 e + a 1 e + a 2 e + a 3 e + a 4 e + a 

G|-----------------------------------------------------------------|
D|-----------------------------------------------------------------|
A|-3-r-----3-r-----3-r-----3-r-----3-r-----3-r-----3-r-------------|
E|-----------------------------------------------------4-3-4-3-6---|
   1 e + a 2 e + a 3 e + a 4 e + a 1 e + a 2 e + a 3 e + a 4 e + a 

1:08
G|-----------------------------------------------------------------|
D|-----------------------------------------------------------------|
A|-3-r-----3-r-----3-r-----3---------------------------------------|
E|---------------------------------4-r-----4-r-----4-r-----4-3-4---|
   1 e + a 2 e + a 3 e + a 4 e + a 1 e + a 2 e + a 3 e + a 4 e + a 

G|-----------------------------------------------------------------|
D|-----------------------------------------------------------------|
A|-1-r-----1-r-----1-r-----1-r-----3-r-----3-r-----3-r-------------|
E|-------------------------------------------------------3-4-3-6---|
   1 e + a 2 e + a 3 e + a 4 e + a 1 e + a 2 e + a 3 e + a 4 e + a 

G|-----------------------------------------------------------------|
D|-----------------------------------------------------------------|
A|-3-r-----3-r-----3-r-----3-r-------------------------------------|
E|---------------------------------4-r-----4-r-----4-r-----4-r-----|
   1 e + a 2 e + a 3 e + a 4 e + a 1 e + a 2 e + a 3 e + a 4 e + a 

G|-----------------------------------------------------------------|
D|-----------------------------------------------------------------|
A|-1-r-----1-r-----1-r-----1-r-----3-r-----3-r-----3-r---1-----3---|
E|-----------------------------------------------------------------|
   1 e + a 2 e + a 3 e + a 4 e + a 1 e + a 2 e + a 3 e + a 4 e + a 

1:25
G|-----------------------------------------------------------------|
D|-----------------------------------------------------------------|
A|-------------------------------------------------1-r---1-----3---|
E|-1-r-----1-r-----1-r-----1-------3-r-----3-----------------------|
   1 e + a 2 e + a 3 e + a 4 e + a 1 e + a 2 e + a 3 e + a 4 e + a 
    
G|-------------5-------5-------------------------------------------|
D|---------3-------3-------3---------------------------------------|
A|---------------------------------3-------1-------------1-----3---|
E|-1-r-------------------------------------------------------------|
   1 e + a 2 e + a 3 e + a 4 e + a 1 e + a 2 e + a 3 e + a 4 e + a 

1:35
G|-----------------------------------------------------------------|
D|-----------------------------------------------------------------|
A|-------------------------------------------------1-----1-----3-/-|
E|-1-r-----1-r-----1-r-----1-------3-------3-----------------------|
   1 e + a 2 e + a 3 e + a 4 e + a 1 e + a 2 e + a 3 e + a 4 e + a 

   Triplet         Triplet
G|-----------------------------------------------------------------|
D|-----------------------------------------------------------------|
A|-8----6----8-----10---8----10------------------------------------|
E|---------------------------------4---------------4---\-----------|
   1 e + a 2 e + a 3 e + a 4 e + a 1 e + a 2 e + a 3 e + a 4 e + a 

1:44
G|-----------------------------------------------------------------|
D|-----------------------------------------------------------------|
A|-3-r-----3-r-----3-r-----3-r-----3-r-----3-r-----3-r-------------|
E|-------------------------------------------------------3-4-3-6---|
   1 e + a 2 e + a 3 e + a 4 e + a 1 e + a 2 e + a 3 e + a 4 e + a 

G|-----------------------------------------------------------------|
D|-----------------------------------------------------------------|
A|-3-r-----3-r-----3-r-----3-r-----3-r-----3-r-----3-r-----3-r-----|
E|-----------------------------------------------------------------|
   1 e + a 2 e + a 3 e + a 4 e + a 1 e + a 2 e + a 3 e + a 4 e + a 

G|---------------------------------------------------0-3---0-------|
D|-----------------------------------------------------------3-1-1-|
A|-3-r-----3-r-----3-r-----3-r-----3-r-----3-r-----3---------------|
E|-----------------------------------------------------------------|
   1 e + a 2 e + a 3 e + a 4 e + a 1 e + a 2 e + a 3 e + a 4 e + a 

G|-----------------------------------------------------------------|
D|-----------------------------------------------------------------|
A|-3-r-----3-r-----3-r-----3-r-----3-r-----3-r-----3-r-----3-r-----|
E|-----------------------------------------------------------------|
   1 e + a 2 e + a 3 e + a 4 e + a 1 e + a 2 e + a 3 e + a 4 e + a 

G|-----------------------------------------------------------------|
D|-----------------------------------------------------------------|
A|-3-r-----3-r-----3-r-----3-r-----3-r-----3-r-----3-r---1-----3---|
E|-----------------------------------------------------------------|
   1 e + a 2 e + a 3 e + a 4 e + a 1 e + a 2 e + a 3 e + a 4 e + a 

2:06
G|---------------------5-------------------------------------------|
D|-----------------------------------------------------------------|
A|-------------------------------------------------1-----1-----3---|
E|-1-r-----1-r-----1-------1---1---3-r-----3-----3-----------------|
   1 e + a 2 e + a 3 e + a 4 e + a 1 e + a 2 e + a 3 e + a 4 e + a 
    
G|-----------------------------------------------------------------|
D|-----------------------------------------------------------------|
A|---------------------------------3-------1-------1-r---1-----3---|
E|-1-r-----1-r-----1-r-----1-r-------------------------------------|
   1 e + a 2 e + a 3 e + a 4 e + a 1 e + a 2 e + a 3 e + a 4 e + a 

2:16
G|-----------------------------------------------------------------|
D|-----------------------------------------------------------------|
A|-------------------------------------------------1-----1-----3-/-|
E|-1-r-----1-r-----1-r-----1-------3-r-----3-----------------------|
   1 e + a 2 e + a 3 e + a 4 e + a 1 e + a 2 e + a 3 e + a 4 e + a 

   Triplet         Triplet
G|-----------------------------------------------------------------|
D|-----------------------------------------------------------------|
A|-8----6----8-----10---8----10------------------------------------|
E|---------------------------------4-4---4-4-4-4-4-4---\-----------|
   1 e + a 2 e + a 3 e + a 4 e + a 1 e + a 2 e + a 3 e + a 4 e + a 

2:25
G|-------------------------------------------------------------------|
D|o-----------------------------------------------------------------o|
A|o-3-r-----3-r-----3-r-----3-r-----3-r-----3-r-----3-r-------------o|
E|--------------------------------------------------------3-4-3-6----|
    1 e + a 2 e + a 3 e + a 4 e + a 1 e + a 2 e + a 3 e + a 4 e + a 

2:34
G|-----------------------------------------------------------------|
D|-----------------------------------------------------------------|
A|-3-r-----3-r-----3-r-----3-r-----3-r-----3-r-----3-r-----3-r-----|
E|-----------------------------------------------------------------|
   1 e + a 2 e + a 3 e + a 4 e + a 1 e + a 2 e + a 3 e + a 4 e + a 

G|---------------------------------------------------5-8---5-5-----|
D|-------------------------------------------------------------8-8-|
A|-3-r-----3-r-----3-r-----3-r-----3-r-----3-r-----3---------------|
E|-----------------------------------------------------------------|
   1 e + a 2 e + a 3 e + a 4 e + a 1 e + a 2 e + a 3 e + a 4 e + a 

G|-----------------------------------------------------------------|
D|-----------------------------------------------------------------|
A|-3-r-----3-r-----3-r-----3-r-----3-r-----3-r-----3-r-----3-r-----|
E|-----------------------------------------------------------------|
   1 e + a 2 e + a 3 e + a 4 e + a 1 e + a 2 e + a 3 e + a 4 e + a 

G|-----------------------------------------------------------------|
D|-----------------------------------------------------------------|
A|-3-r-----3-r-----3-r-----3-r-----3-r-----3-r-----3---1-------3---|
E|---------------------------------------------------3-------------|
   1 e + a 2 e + a 3 e + a 4 e + a 1 e + a 2 e + a 3 e + a 4 e + a 

2:51
G|-----------------------------------------------------------------|
D|-----------------------------------------------------------------|
A|-------------------------------------------------1-----1-----3---|
E|-1-r-----1-r-----1-r-----1-------3-r-----3-----------------------|
   1 e + a 2 e + a 3 e + a 4 e + a 1 e + a 2 e + a 3 e + a 4 e + a 
    
G|-----------------------------------------------------------------|
D|-----------------------------------------------------------------|
A|---------------------------------3-------1-----------1-------3---|
E|-1-r-----1-r-----1-r-----1-r-------------------------------------|
   1 e + a 2 e + a 3 e + a 4 e + a 1 e + a 2 e + a 3 e + a 4 e + a 

2:16
G|-----------------------------------------------------------------|
D|-----------------------------------------------------------------|
A|-------------------------------------------------1-----1-----3-/-|
E|-1-r-----1-r-----1-r-----1-------3-r-----3-----------------------|
   1 e + a 2 e + a 3 e + a 4 e + a 1 e + a 2 e + a 3 e + a 4 e + a 

   Triplet         Triplet
G|-----------------------------------------------------------------|
D|-----------------------------------------------------------------|
A|-8----6----8-----10---8----10------------------------------------|
E|---------------------------------4-------------------------------|
   1 e + a 2 e + a 3 e + a 4 e + a 1 e + a 2 e + a 3 e + a 4 e + a 

G|---------------------------------|
D|---------------------------------|
A|---------------------------------|
E|-----------------4---\-----------|
   1 e + a 2 e + a 3 e + a 4 e + a 

3:12
G|-----------------------------------------------------------------|
D|-----------------------------------------------------------------|
A|-3-r-----3-r-----3-r-----3-r-----3-r-----3-r-----3-r-------------|
E|-------------------------------------------------------3-4-3-6---|
   1 e + a 2 e + a 3 e + a 4 e + a 1 e + a 2 e + a 3 e + a 4 e + a 

G|-----------------------------------------------------------------|
D|-----------------------------------------------------------------|
A|-3-r-----3-r-----3-r---1-r---1-r-3-r-----3-r-----3-r---1-r---1-r-|
E|-----------------------------------------------------------------|
   1 e + a 2 e + a 3 e + a 4 e + a 1 e + a 2 e + a 3 e + a 4 e + a 

G|-----------------------------------------------------------------|
D|-----------------------------------------------------------------|
A|-3-r-----3-r-----3-r---------------------------------------------|
E|---------------------3-4-3-4-------------------------------------|
   1 e + a 2 e + a 3 e + a 4 e + a 1 e + a 2 e + a 3 e + a 4 e + a 

G|-----------------------------------------------------------------|
D|-----------------------------------------------------------------|
A|-3-r-----3-r-----3-r---3-r---1-r-3-r-----3-r-----3-r---3-r---1-r-|
E|-----------------------------------------------------------------|
   1 e + a 2 e + a 3 e + a 4 e + a 1 e + a 2 e + a 3 e + a 4 e + a 

G|-----------------------------------------------------------------|
D|-----------------------------------------------------------------|
A|-3-r-----3-r-----3-r---------------------------------------------|
E|---------------------3-4-3-4-------------------------------------|
   1 e + a 2 e + a 3 e + a 4 e + a 1 e + a 2 e + a 3 e + a 4 e + a

3:35
G|-----------------------------------------------------------------|
D|-----------------------------------------------------------------|
A|-3-r-----3-r-----3-r---1-r---1-r-3-r-----3-r-----3-r---1-r---1-r-|
E|-----------------------------------------------------------------|
   1 e + a 2 e + a 3 e + a 4 e + a 1 e + a 2 e + a 3 e + a 4 e + a 

G|-----------------------------------------------------------------|
D|-----------------------------------------------------------------|
A|-3-r-----3-r-----3-r---------------------------------------------|
E|---------------------3-4-3-4-------------------------------------|
   1 e + a 2 e + a 3 e + a 4 e + a 1 e + a 2 e + a 3 e + a 4 e + a 

G|-----------------------------------------------------------------|
D|-----------------------------------------------------------------|
A|-3-r-----3-r-----3-r---3-r---1-r-3-r-----3-r-----3-r---3-r---1-r-|
E|-----------------------------------------------------------------|
   1 e + a 2 e + a 3 e + a 4 e + a 1 e + a 2 e + a 3 e + a 4 e + a 

G|-----------------------------------------------------------------|
D|-----------------------------------------------------------------|
A|-3-r-----3-r-----3-r---------------------------------------------|
E|---------------------3-4-3-4-------------------------------------|
   1 e + a 2 e + a 3 e + a 4 e + a 1 e + a 2 e + a 3 e + a 4 e + a 
Tabbed by Dave Vucko
Suggest correction
What's this?
You can suggest a correction to this tab. Community and Mods will review your correction and vote to approve or reject it.
comments
print report bad tab
2 comments total.
0 reply
RickyRubio 491 wrote on November 29 2015, 06:31 pm

Why so complicated?

+1 reply
Teh D Bot 10,235 wrote on December 1 2015, 06:22 pm

To get a more accurate tab

guest
You may want to rate the tab now too:
select rating
Please do not post tabs as comments. Select "correction" instead!