Oops, an error
Loading. Please wait.

Eye Of The Tiger Chords

version 5
14,888 views 39 this week
no commentswrite comment
1 2 3 4 5
worth learning
x 2
add to favorites
launch autoscroll
font size
0
reset
transpose
0
reset
simplify chords
- display chords -
guitar tuner
Tab Pro tools
  • play this tab
  • loop segment
  • change instrument
  • show fretboard
  • metronome
×
Best way to learn
"Eye Of The Tiger"
Autoscroll
slow
fast
+/-
esc
set tempo
stop
Contributor
Difficulty
novice
Survivor - Eye of the tiger

The Chorus-Lik [Lik 1] is played on The D String(D---3-1-3--5-3-5--6)

there is an schematic of the song at the End.

The chords are played:

[C]            | [G#/C]         | [Bb/C]
               |                |
E-¦0¦-¦-¦-¦    | E-¦0¦-¦-¦-¦    | E-¦0¦-¦-¦-¦
B-¦|¦-¦0¦-¦    | B-¦|¦0¦-¦-¦    | B-¦0¦-¦-¦-¦
G-¦|¦-¦-¦0¦    | G-¦|¦-¦0¦-¦    | G-¦0¦-¦-¦-¦
D-¦|¦-¦-¦0¦    | D-¦|¦-¦-¦0¦    | D-¦0¦-¦-¦-¦
A-¦0¦-¦-¦-¦    | A-¦0¦-¦-¦-¦    | A-¦0¦-¦-¦-¦
E-¦-¦-¦-¦-¦    | E-¦0¦-¦-¦-¦    | E-¦-¦-¦-¦-¦

   3.               3.               3.

Enjoy!


[Intro pt.1] (dum didi dum dididum...)

C on A Sting
1/16

e-----------------------------------| 
B-----------------------------------| 
G-----------------------------------| 
D-----------------------------------|
A -3-3-3-3-3-3-3-3-3-3-3-3-3-3-3-3-3|
E-----------------------------------|


[Intro pt.2 ] (Daa.  da-da-da da-da-da da-da-doooo...)
 
    C5      Bb5 C5       Bb5 C5  C5 G5 G#5
e-----------------------------------------|
B-----------------------------------------|
G-----------------------------------------|
D-----------------------------------------|
A---10----10-8--10-----10-8--10---10-5--6-|
E---8-----8--6--8------8--6--8----8--3--4-|



[Intro pt.3 ] (Daaa.  dada-da-dadaaa dada-da-dadaaa dada-da-dOOO...)

    C5                     C5 G5 G#5
e-----------------------------------|
B-----------------------------------|
G-------8-8-8------8-8-8------------|
D-------8-7-8------8-7-8------------|
A---10----------------------10-5--6-|
E---8-----------------------8--3--4-|

[ Vers ]

    C      G#/C     
Risin' up, back on the street
Bb/C                 C
Did my time, took my chances
C                         G#/C     
Went the distance, now I'm back on my feet
       Bb/C                C 
Just a man and his will to survive

C                 G#                          
So many times, it happens too fast
Bb                          C 
You change your passion for glory
C                         G#     
Don't lose your grip on the dreams of the past
            Bb                  C  
You must fight just to keep them alive


[Chorus]

          F5     
It's the eye of the tiger, it's
      D#5            Bb5     
the thrill of the fight
            F5                    C5-Bb5     
Rising up to the challenge of our rival
       F5      
And the last known survivor
           D#5                 Bb5     
stalks his prey in the night
         Lik1_________________________
And he's watching us all with the eye of the tiger


[Intro pt.1]

e-----------------------------------| 
B-----------------------------------| 
G-----------------------------------| 
D-----------------------------------|
A -3-3-3-3-3-3-3-3-3-3-3-3-3-3-3-3-3|
E-----------------------------------|


C            G#/C     
Face to face, out in the heat
Bb/C                     C 
Hangin' tough, stayin' hungy
C                           G#/C     
They stack the odds, still we take to the street
        Bb/C                   C 
For the kill with the skill to survive


[Chorus]

         F5     
It's the eye of the tiger, it's
      D#5              Bb5     
the thrill of the fight
        F5                      C5-Bb5     
Rising up to the challenge of our rival
        F5      
And the last known survivor
            D#5      Bb5     
stalks his prey in the night
        Lik1__________________________
And he's watching us all with the eye of the tiger


[Intro pt.1]

e-----------------------------------| 
B-----------------------------------| 
G-----------------------------------| 
D-----------------------------------|
A -3-3-3-3-3-3-3-3-3-3-3-3-3-3-3-3-3|
E-----------------------------------|

C           G#/C     
Risin' up, straight to the top
Bb/C                 C 
Had the guts, got the glory
C                        G#/C     
Went the distance, now I'm not gonna stop
       Bb/C                 C 
Just a man and his will to survive


[Chorus]
         F5     
It's the eye of the tiger, it's
      D#5            Bb5     
the thrill of the fight
       F5                         C5-Bb5     
Rising up to the challenge of our rival
         F5      
And the last known survivor
          D#5             Bb5     
stalks his prey in the night
           Lik1_______________________
And he's watching us all with the eye of the tiger



[Intro pt.1]

e-----------------------------------| 
B-----------------------------------| 
G-----------------------------------| 
D-----------------------------------|
A -3-3-3-3-3-3-3-3-3-3-3-3-3-3-3-3-3|
E-----------------------------------|


[Intro pt.2 ]
 
    C5      Bb5 C5       Bb5 C5  C5 G5 G#5
e-----------------------------------------|
B-----------------------------------------|
G-----------------------------------------|
D-----------------------------------------|
A---10----10-8--10-----10-8--10---10-5--6-|
E---8-----8--6--8------8--6--8----8--3--4-|


the eye of the tiger
the eye of the tiger

[Intro pt.3 ] 
    C5                     C5 G5 G#5
e-----------------------------------|
B-----------------------------------|
G-------8-8-8------8-8-8------------|
D-------8-7-8------8-7-8------------|
A---10----------------------10-5--6-|
E---8-----------------------8--3--4-|


_____________________________________________________________________________


Song schematic:

[C]            | [G#/C]         | [Bb/C]
               |                |
               |                |
E-¦0¦-¦-¦-¦    | E-¦0¦-¦-¦-¦    | E-¦0¦-¦-¦-¦
B-¦|¦-¦0¦-¦    | B-¦|¦0¦-¦-¦    | B-¦0¦-¦-¦-¦
G-¦|¦-¦-¦0¦    | G-¦|¦-¦0¦-¦    | G-¦0¦-¦-¦-¦
D-¦|¦-¦-¦0¦    | D-¦|¦-¦-¦0¦    | D-¦0¦-¦-¦-¦
A-¦0¦-¦-¦-¦    | A-¦0¦-¦-¦-¦    | A-¦0¦-¦-¦-¦
E-¦-¦-¦-¦-¦    | E-¦0¦-¦-¦-¦    | E-¦-¦-¦-¦-¦

   3.               3.               3.


[ Intro & Bridges ]

e-------------------------------------|
B-------------------------------------|
G-------------------------------------|
D-------------------------------------|
A-3-3-3-3-3-3-3-3-3-3-3-3-3-3-3-3-3-3-|...
E-------------------------------------|
 
    C5      Bb5 C5       Bb5 C5  C5 G5 G#5
e-----------------------------------------|
B-----------------------------------------|
G-----------------------------------------|
D-----------------------------------------|
A---10----10-8--10-----10-8--10---10-5--6-|
E---8-----8--6--8------8--6--8----8--3--4-|


    C5                     C5 G5 G#5
e-----------------------------------|
B-----------------------------------|
G-------8-8-8------8-8-8------------|
D-------8-7-8------8-7-8------------|
A---10----------------------10-5--6-|
E---8-----------------------8--3--4-|


[ Vers ]
4/4
| C |G#/C|Bb/C| C | x2
| C | G# | Bb | C | x2

[ Chorus ]

|  F5  |D#5-Bb5| F5 |C5-Bb5|
|  F5  |D#5-Bb5| D-string: 3-1-3--5-3-5--6

comments
We did not receive enough feedback on this tab! Please rate:
print report bad tab
1 2 3 4 5
I want to post or [tab]
guest
You may want to rate the tab now too:
select rating
Please do not post tabs as comments. Select "correction" instead!