Oops, an error
Loading. Please wait.

I Cant Hold Back Tab

version 1
version 1

Intro

Solo

Whole song

22,400 views 42 this week
1 commentread comment
1 2 3 4 5
excellent!
x 6
add to favorites
launch autoscroll
font size
0
reset
how to read this tab
guitar tuner
Tab Pro tools
  • play this tab
  • loop segment
  • change instrument
  • show fretboard
  • metronome
Autoscroll
slow
fast
+/-
esc
set tempo
stop
-----------------------Artist: Survivor-----------------------------------
-----------------------Album:  Vital Signs--------------------------------
-----------------------Song:   I Can't Hold Back--------------------------




Intro:

e|-------------------------------------------------------------------------|
B|---------5------5-------------0--------------0------0----------0---------|
G|-------4---4------4---------2---2----------1---1------1------2---2-------|
D|-----4-------4------------2-------2------2-------2---------2-------2-----|
A|---2--------------------0--------------2-----------------0---------------|
E|-------------------------------------------------------------------------|
                              Play x5

Chorus:

e|--------------------------------------------------------------------|
B|--------------------------------------------------------------------|
G|-------6----------2-----------4-----4--4------4-4-4-----------------|   
D|-------6----------2-----------4-----4--4------4-4-4-----------------|
A|-------4----------0-----------2-----2--2------2-2-2-----------------|
E|--------------------------------------------------------------------|
                                 ^
Play x1 Then play to here--------^  then back to intro



Solo:

e|-----------------------------------12--11--10----------------------------|
B|-----/9-9-9-9-9--10--7---7--------------------12--10--10---12------------|
G|-----------------------9---------------------------------13---9----------|
D|-------------------------------------------------------------------------|
A|-------------------------------------------------------------------------|
E|-------------------------------------------------------------------------|


e|---------------------------------------------16--17--19--19^-------------|
B|---21--19--17--19--17----17--17------------------------------------------|
G|----------------------18-------------------------------------------------|
D|-------------------------------------------------------------------------|
A|-------------------------------------------------------------------------|
E|-------------------------------------------------------------------------|


This is my first tab, all the notes are right I beleive. You can put it all togeather.  
Have fun with it, Zach S.
comments
print report bad tab
1 comment total.
+2 reply
pbarney wrote on May 1 2011, 02:32 pm

Actually, the intro is:


e|---------0------0-------------0--------------0-----0----------0-------|
B|-------4---4------4---------0---0----------0---0-----0------0---0-----|
G|-----4-------4------------2-------2------1-------1--------2-------2---|
D|----------------------------------------------------------------------|
A|---2--------------------0-------------------------------0-------------|
E|---------------------------------------4------------------------------|


Spamblocker1

I want to post or [tab]
guest
You may want to rate the tab now too:
select rating
Please do not post tabs as comments. Select "correction" instead!