Oops, an error
Loading. Please wait.

Anyhow bass

52 views 1 this week
1 commentread comment
1 2 3 4 5
3 more votes to show rating
add to favorites
×
Save as Personal and add changes to this tab that will be seen only by you. Learn more ›
×
You can save this tab as Personal to edit and correct it or add notes. All changes will be seen only by you. Learn more »
launch autoscroll
font size
0
reset
guitar tuner
edit
Autoscroll
slow
fast
+/-
esc
set tempo
stop
ANYHOW
Susan Tedeschi, 
Derek Trucks (2016)
2016 album: Let Me Get By.

[Intro]: 

E E A E E E A E
[Bass starts}: 00:24 “anyhow”...
G|------9-7----------||------9-7----------|-
D|----------9r--7-9--||-----------9r-7-9--|-
A|/7rrr--------------||-7rrr--------------|- x2
E|-------------------||-------------------|-

[Verse 1]: 00:36
G|-------6--4/6-|-------6--4/6-|-------6--4/6-||------9-7----------|-
D|----6---------|----6---------|----6---------||-----------9r-7-9--|-
A|-4r-----------|-4r-----------|-4r-----------||-7rrr--------------|- 
E|--------------|--------------|--------------||-------------------|-
C#m
Running from a bitter taste
C#m
Took a rest from all the chase
C#m                              E
Feeling something anchored on my soul

G|-------6--4/6-|-------6--4/6-||-------9-7----------||-------9-7----------|-
D|----6---------|----6---------||------------9r-7-9--||------------9r-7-9--|-
A|-4r-----------|-4r-----------||-7rrr---------------||-7rrr---------------|-  
E|--------------|--------------||--------------------||--------------------|-
C#m
Played the game by all the rules
C#m                             E
Learning lessons no one gets to choose

G|-------6--4/6-|---------------||-------9-7----------||-------9-7----------|-
D|----6---------|---------------||------------9r-7-9--||------------9r-7-9--|-
A|-4r-----------|-4r---5r---6r--||-7rrr---------------||-7rrr---------------|- 
E|--------------|---------------||--------------------||--------------------|-
C#m                D      E
Everywhere I turn, here I am (I am)

G|---------------|--------------||-------9-7----------||-------9-7----------|-
D|---------------|--------------||------------9r-7-9--||------------9r-7-9--|-
A|-4rrr----------|-5rrr---------||-7rrr---------------||-7rrr---------------|- 
E|---------------|--------------||--------------------||--------------------|-
         C#m                D    
So walk away with me (walk away) I'll show you that

[Chorus 1]: 01:14 (play x2)
G|------9-7-----------|--------------------||-----------------||-----|-
D|----------9r--7-7-9-|------7-5-------(5)-||-5rrr--7--5--4r--||-----|-
A|-7rrr---------------|----------7r-5-5----||-----------------||-7rr-|- 
E|--------------------|-5rrr---------------||----------------7||-----|-
E          A         G        F#
I would go anywhere, anytime (anywhere, anytime)
E          A         G               F#
I would do anything, anyway (anyway)
E
Anyhow...  

[Verse 2]: 01:45
G|-------6--4/6-|-------6--4/6-|-------6--4/6-||------9-7----------|-
D|----6---------|----6---------|----6---------||-----------9r-7-9--|-
A|-4r-----------|-4r-----------|-4r-----------||-7rrr--------------|- 
E|--------------|--------------|--------------||-------------------|-
C#m
Woke up feeling all adrift
C#m
Pieced together what I missed
C#m                                E
Realized that you pushed me out to sea

G|-------6--4/6-|-------6--4/6-||-------9-7----------||-------9-7----------|-
D|----6---------|----6---------||------------9r-7-9--||------------9r-7-9--|-
A|-4r-----------|-4r-----------||-7rrr---------------||-7rrr---------------|-  
E|--------------|--------------||--------------------||--------------------|-
C#m
Followed from a lost place
C#m                             E
Dealing with the wreckage in my soul

G|-------6--4/6-|---------------||-------9-7----------||-------9-7----------|-
D|----6---------|---------------||------------9r-7-9--||------------9r-7-9--|-
A|-4r-----------|-4r---5r---6r--||-7rrr---------------||-7rrr---------------|- 
E|--------------|---------------||--------------------||--------------------|-
C#m                D         E
Everywhere I turn, there you are

G|--------6--4/6-|--------------||-------9-7----------||-------9-7----------|-
D|-----6---------|--------------||------------9r-7-9--||------------9r-7-9--|-
A|-4r------------|-5rrr---------||-7rrr---------------||-7rrr---------------|- 
E|---------------|--------------||--------------------||--------------------|-
         C#m                D    
So walk away with me (walk away), I'll show you that

[Chorus 2]: 02:24 (play x2)
G|------9-7-----------|--------------------||-----------------||-----|-
D|----------9r--7-7-9-|------7-5-------(5)-||-5rrr--7--5--4r--||-----|-
A|-7rrr---------------|----------7r-5-5----||-----------------||-7rr-|- 
E|--------------------|-5rrr---------------||-----------------||-----|-
E          A         G        F#
I would go anywhere, anytime (anywhere, anytime)
E          A         G               F#
I would do anything, anyway (anyway)
E
Anyhow...  

[Interlude]: 02:45 play x2
G|------9-7-----------||--------------------|-
D|----------9r--7-7-9-||------5-2-----------|-
A|-7-7r---------------||----------5r--2-2-5-|- 
E|--------------------||-5-3r---------------|-

G|--------------------||------9-7-----------|-
D|------7-5-----------||----------9r--7-7-9-|-
A|----------7r--5-5-6-||-7-7r---------------|-
E|-3-5r---------------||--------------------|-
   
E      G A E
Anyhow   (instrumental)
   E      G A E
Anyhow   (instrumental)


[Verse 3]: 03:05
G|-------6--4/6-|-------6--4/6-|-------6--4/6-||------9-7----------|-
D|----6---------|----6---------|----6---------||-----------9r-7-9--|-
A|-4r-----------|-4r-----------|-4r-----------||-7rrr--------------|- 
E|--------------|--------------|--------------||-------------------|-
C#m
No one cares to loan a dime
C#m
Sorry if it cost you time
C#m                                  E 
What'd you expect a desperate man to do?

G|-------6--4/6-|-------6--4/6-||-------9-7----------||-------9-7----------|-
D|----6---------|----6---------||------------9r-7-9--||------------9r-7-9--|-
A|-4r-----------|-4r-----------||-7rrr---------------||-7rrr---------------|-  
E|--------------|--------------||--------------------||--------------------|-
C#m
Cain and Abel lit the flame
C#m                       E
We can never go that way again

G|-------6--4/6-|---------------||-------9-7----------||-------9-7----------|-
D|----6---------|---------------||------------9r-7-9--||------------9r-7-9--|-
A|-4r-----------|-4r---5r---6r--||-7rrr---------------||-7rrr---------------|- 
E|--------------|---------------||--------------------||--------------------|-
     C#m           D       E
Everywhere I turn, here we are, we are...

G|---------------|--------------||-------9-7----------||-------9-7----------|-
D|---------------|--------------||------------9r-7-9--||------------9r-7-9--|-
A|-4rrr----------|-5rrr---------||-7rrr---------------||-7rrr---------------|- 
E|---------------|--------------||--------------------||--------------------|-
         C#m                D    
So walk away with me (walk away) I'll show you that

[Chorus 3]: 03:44 (play x4)
G|------9-7-----------|--------------------||-----------------||-----|-
D|----------9r--7-7-9-|------7-5-------(5)-||-5rrr--7--5--4r--||-----|-
A|-7rrr---------------|----------7r-5-5----||-----------------||-7rr-|- 
E|--------------------|-5rrr---------------||-----------------||-----|-
E          A         G        F#
I would go anywhere, anytime (anywhere, anytime)
E          A         G               F#
I would do anything, anyway (anyway)

E          A         G        F#
I would go anywhere, anytime (anywhere, anytime)
E          A         G               F#
I would do anything, anyway (anyway)


[Interlude 2]: 04:25 play X2
G|------9-7-----------||--------------------|-
D|----------9r--7-7-9-||------5-2-----------|-
A|-7-7r---------------||----------5r--2-2-5-|- 
E|--------------------||-5-3r---------------|-

G|--------------------||------9-7-----------|-
D|------7-5-----------||----------9r--7-7-9-|-
A|----------7r--5-5-6-||-7-7r---------------|-
E|-3-5r---------------||--------------------|-

   E      G A E
Anyhow   (instrumental)   
   E      G A E
Anyhow   (instrumental)

[Coda]

[Interlude / outro]: 02:45    E  G  A  E  (repeat to fade out)
G|------9-7-----------||--------------------|-
D|----------9r--7-7-9-||------5-2-----------|-
A|-7-7r---------------||----------5r--2-2-5-|- 
E|--------------------||-5-3r---------------|-

G|--------------------||------9-7-----------|-
D|------7-5-----------||----------9r--7-7-9-|-
A|----------7r--5-5-6-||-7-7r---------------|-
E|-3-5r---------------||--------------------|-

End: 06:35


            
            
Suggest correction
Creating personal tab
Creating personal tab
You can edit any tab online and save it as your Personal.

You can edit, replace or remove any tab part or add personal notes – all changes will be seen only by you.

Personal tabs can be accessed anytime from any device, even offline.
Learn more »
Give kudos to tab author, rate the tab!
1 2 3 4 5
comments
print report bad tab
1 comment total.
0 reply
Bruno Frenchy 4,768 Apr 07, 2017 10:03 AM

My work here and my version for that new song on UG...
I am a great fan of Susan Tedeschi and Dereck Truck and I am pleased to humbly contribute to their music and maybe invite people to play their songs...

Enjoy, share and rate,

Bruno

guest
You may want to rate the tab now too:
select rating
Wanna post a correction for this tab? Suggest correction