Oops, an error
Loading. Please wait.

Marks Song Tab

10 views 1 this week
no commentswrite comment
1 2 3 4 5
3 more votes to show rating
add to favorites
launch autoscroll
font size
0
reset
how to read this tab
guitar tuner
Autoscroll
slow
fast
+/-
esc
set tempo
stop
Help us to improve Ultimate-Guitar.com Take our survey!
×
Author
Difficulty
intermediate
[Intro]

e|-----------------------------------------------|-|
B|-----------------------------------------------|-|
G|-----------------------------------------------|-|
D|-------------4p2---5p2---4p2-----5p2-4p2-------|-|
A|-3p2-2-5p2-2-2-2-2-2-2-2-2-2-5p2-2-2-2-2-5--5-5|-|
E|-0-0-0-0-0-0-0-0-0-0-0-0-0-0-0-0-0-0-0-0-3--3-3|-|(x2)


[Verse]

e|-------------------------------------------|     |-------------------|
B|-------------------------------------------|     |-------------------|
G|-------------------------------------------|     |-------------------|
D|----------------------------------4--4-4-4-|     |-4-4-4-4-4-4/5-5-5-|
A|-2--2-2-2-2-3p2-2-2-5p2-3p2-5-5-5-2--2-2-2-|     |-2-2-2-2-2-2/5-5-5-|
E|-0--0-0-0-0-0-0-0-0-0-0-0-0-3-3-3----------|(x3) |-------------------|

e|-------------------------------------------|-|
B|-------------------------------------------|-|
G|-------------------------------------------|-|
D|----------------------------------4--4-4-4-|-|
A|-2--2-2-2-2-3p2-2-2-5p2-3p2-5-5-5-2--2-2-2-|-|
E|-0--0-0-0-0-0-0-0-0-0-0-0-0-3-3-3----------|-|(x4)


[Chorus]
e|-------------------------------------------|-|
B|-------------------------------------------|-|
G|-------------------------------------------|-|
D|----------------------4----------7---------|-|
A|-2---------5----------2----------5---------|-|
E|-0---------3-------------------------------|-|

e|-----------------------------------------------------------------|-|
B|-----------------------------------------------------------------|-|
G|-----------------------------------------------------------------|-|
D|-9-9-9-9-9-9-9-9-----------------4-4-4-4-4-4-4-4-7-7-7-7-7-7-7-7-|-|
A|-7-7-7-7-7-7-7-7-5-5-5-5-5-5-5-5-2-2-2-2-2-2-2-2-5-5-5-5-5-5-5-5-|-|
E|-0-0-0-0-0-0-0-0-3-3-3-3-3-3-3-3---------------------------------|-|

[Interlude]

e|-----------------------------------------------|-|
B|-----------------------------------------------|-|
G|-----------------------------------------------|-|
D|-------------4p2---5p2---4p2-----5p2-4p2-------|-|
A|-3p2-2-5p2-2-2-2-2-2-2-2-2-2-5p2-2-2-2-2-5--5-5|-|
E|-0-0-0-0-0-0-0-0-0-0-0-0-0-0-0-0-0-0-0-0-3--3-3|-|(x2)

[Bridge]
   
e|-----------------------------------------------------------------|-|
B|-----------------------------------------------------------------|-|
G|-----------------------------------------------------------------|-|
D|---------------------------------4-4-4-4-4-4-4-4-7-7-7-7-7-7-7-7-|-|
A|-2-2-2-2-2-2-2-2-5-5-5-5-5-5-5-5-2-2-2-2-2-2-2-2-5-5-5-5-5-5-5-5-|-|
E|-0-0-0-0-0-0-0-0-3-3-3-3-3-3-3-3---------------------------------|-|
   PM-------------|PM-------------|PM-------------|PM--------------|-|

e|-----------------------------------------------------------------|-|
B|-----------------------------------------------------------------|-|
G|-----------------------------------------------------------------|-|
D|-9-9-9-9-9-9-9-9-----------------4-4-4-4-4-4-4-4-7-7-7-7-7-7-7-7-|-|
A|-7-7-7-7-7-7-7-7-5-5-5-5-5-5-5-5-2-2-2-2-2-2-2-2-5-5-5-5-5-5-5-5-|-|
E|-0-0-0-0-0-0-0-0-3-3-3-3-3-3-3-3---------------------------------|-|
       PM---------|    PM---------|    PM---------|

[Interlude]

e|-----------------------------------------------|-|
B|-----------------------------------------------|-|
G|-----------------------------------------------|-|
D|-------------4p2---5p2---4p2-----5p2-4p2-------|-|
A|-3p2-2-5p2-2-2-2-2-2-2-2-2-2-5p2-2-2-2-2-5--5-5|-|
E|-0-0-0-0-0-0-0-0-0-0-0-0-0-0-0-0-0-0-0-0-3--3-3|-|(x2)


[Outro]

e|-----------------------|-----------------------|-----------------------|---------------|
B|-----------------------|-----------------------|-----------------------|---------------|
G|-----------------------|-----------------------|-----------------------|---------------|
D|-----------------------|-----------------------|-----------------------|-4-4--7--7-7-7-|
A|-2-x-x-5-5-5/7-7-7-7-7-|-2-x-x-5-5-5/7-7-7-7-7-|-2-x-x-5-5-5/7-7-7-7-7-|-2-2--5--5-5-5-|
E|-0-x-x-3-3-3/5-5-5-5-5-|-0-x-x-3-3-3/5-5-5-5-5-|-0-x-x-3-3-3/5-5-5-5-5-|---------------|

[Outro]

e|-----------------------------------------------|-|
B|-----------------------------------------------|-|
G|-----------------------------------------------|-|
D|-------------4p2---5p2---4p2-----5p2-4p2-------|-|
A|-3p2-2-5p2-2-2-2-2-2-2-2-2-2-5p2-2-2-2-2-5--5-5|-|
E|-0-0-0-0-0-0-0-0-0-0-0-0-0-0-0-0-0-0-0-0-3--3-3|-|(x2)



************************************

| p  Pull-off
| /  Slide up
| x  Dead note
| PM palm mute

************************************
Suggest correction
Give kudos to tab author, rate the tab!
1 2 3 4 5
comments
print report bad tab
guest
You may want to rate the tab now too:
select rating
Wanna post a correction for this tab? Suggest correction