Oops, an error
Loading. Please wait.

Tone Deafness Tab

4 views 1 this week
no commentswrite comment
1 2 3 4 5
3 more votes to show rating
add to favorites
launch autoscroll
font size
0
reset
how to read this tab
guitar tuner
Autoscroll
slow
fast
+/-
esc
set tempo
stop
Help us to improve Ultimate-Guitar.com Take our survey!
×
Author
Difficulty
Tuning
intermediate
D A D G B E
[Intro]

e|-------------------------------------------|----------------------------------------------|
B|-------------------------------------------|----------------------------------------------|
G|-11-11-11-11-11-11-11-11-11-11-11-11-11-11-|-12-12-12-12-12-12-12-12-12-12-12-12-12-12-12-|
D|-------------------------------------------|----------------------------------------------|
A|-9--9--9--9--9--9--9--9--9--9--9--9--9--9--|-10-10-10-10-10-10-10-10-10-10-10-10-10-10-10-|
D|-0--0--0--0--0--0--0--0--0--0--0--0--0--0--|-0--0--0--0--0--0--0--0--0--0--0--0--0--0--0--|

e|-------------------------------------------|----------------------------------------------|
B|-------------------------------------------|----------------------------------------------|
G|-11-11-11-11-11-11-11-11-11-11-11-11-11-11-|-12-12-12-12-12-12-12-12-12-12-12-12-12-12-12-|
D|-------------------------------------------|----------------------------------------------|
A|-9--9--9--9--9--9--9--9--9--9--9--9--9--9--|-10-10-10-10-10-10-10-10-10-10-10-10-10-10-10-|
D|-0--0--0--0--0--0--0--0--0--0--0--0--0--0--|-0--0--0--0--0--0--0--0--0--0--0--0--0--0--0--|

e|-------------------------------------------|-----------------------------------------------|
B|-------------------------------------------|-----------------------------------------------|
G|-------------------------------------------|-----2--2---2-2--2-----------------------------|
D|-0-0-0--3-0-0-3-0-3/5-5--5-5-5-h6-h5-3-5-3-|-0-0-0--0-3-0-0-3-0-3/5-5--5-5-5-h6-h5-3-5-3-0-|
A|-0-0-0--3-0-0-3-0-3/5-5--5-5-5-h6-h5-3-5-3-|-0-0-0--0-3-0-0-3-0-3/5-5--5-5-5-h6-h5-3-5-3-0-|
D|-0-0-0--3-0-0-3-0-3/5-5--5-5-5-h6-h5-3-5-3-|-0-0-0--0-3-0-0-3-0-3/5-5--5-5-5-h6-h5-3-5-3-0-|

e|--------------------------------------------|----------------------------------------------|
B|--------------------------------------------|----------------------------------------------|
G|-----2--2---2-2---2-------------------------|-----2--2---2-2---2---------------------------|
D|-0-0-0--0-3-0-0-3-0-3/5-5-5-5-5-h6-h5-3-5-3-|-0-0-0--0-3-0-0-3-0-3/5-5--5-5-5-h6-h5-3-5-3--|
A|-0-0-0--0-3-0-0-3-0-3/5-5-5-5-5-h6-h5-3-5-3-|-0-0-0--0-3-0-0-3-0-3/5-5--5-5-5-h6-h5-3-5-3--|
D|-0-0-0--0-3-0-0-3-0-3/5-5-5-5-5-h6-h5-3-5-3-|-0-0-0--0-3-0-0-3-0-3/5-5--5-5-5-h6-h5-3-5-3--|


[Verse 1]

e|-------------------------------------|-------------------------------------|
B|-------------------------------------|-------------------------------------|
G|-----------------------------0-------|-----------------------------0-------|
D|-------------------------------------|-------------------------------------|
A|-/9-9-9-9-9-9-9--9-9-9-9-h10---10-h9-|-/9-9-9-9-9-9-9--9-9-9-9-h10---10-h9-|
D|--0-0-0-0-0-0-0--0-0-0---------------|--0-0-0-0-0-0-0--0-0-0---------------|

e|-------------------------------------|-------------------------------------|
B|-------------------------------------|-------------------------------------|
G|-----------------------------0-------|-----------------------------0-------|
D|-------------------------------------|-------------------------------------|
A|-/9-9-9-9-9-9-9--9-9-9-9-h10---10-h9-|-/9-9-9-9-9-9-9--9-9-9-9-h10---10-h9-|
D|--0-0-0-0-0-0-0--0-0-0---------------|--0-0-0-0-0-0-0--0-0-0---------------|

e|-------------------------|
B|-------------------------|
G|-------0-------0---------|
D|----12------12-------0---|
A|-------------------2---2-|
D|-10------9-------3-------|


[Chorus]

e|-----------------------------------------|-----------------------------------------|
B|-----------------------------------------|-----------------------------------------|
G|-----------------------------------------|-----------------------------------------|
D|-0-0-x-0-0--0-0--0-0--0-0--6-6-6-6-5-5-3-|-0-0-x-0-0--0-0--0-0--0-0--6-6-6-6-5-5-3-|
A|-0-0-x-0-0--0-0--0-0--0-0--6-6-6-6-5-5-3-|-0-0-x-0-0--0-0--0-0--0-0--6-6-6-6-5-5-3-|
D|-0-0-x-0-0--0-0--0-0--0-0--6-6-6-6-5-5-3-|-0-0-x-0-0--0-0--0-0--0-0--6-6-6-6-5-5-3-|

e|----------------------------------------------|-|
B|----------------------------------------------|-|
G|----------------------------------------------|-|
D|-3-0--0--3-0--0-3-0--3-0--0-0-0-6-6-6-6-5-5-3-|-|
A|-3-0--0--3-0--0-3-0--3-0--0-0-0-6-6-6-6-5-5-3-|-|
D|-3-0--0--3-0--0-3-0--3-0--0-0-0-6-6-6-6-5-5-3-|-|


[Verse 2]

e|-------------------------------------|-------------------------------------|
B|-------------------------------------|-------------------------------------|
G|-----------------------------0-------|-----------------------------0-------|
D|-------------------------------------|-------------------------------------|
A|-/9-9-9-9-9-9-9--9-9-9-9-h10---10-h9-|-/9-9-9-9-9-9-9--9-9-9-9-h10---10-h9-|
D|--0-0-0-0-0-0-0--0-0-0---------------|--0-0-0-0-0-0-0--0-0-0---------------|

e|-------------------------------------|-------------------------------------|
B|-------------------------------------|-------------------------------------|
G|-----------------------------0-------|-----------------------------0-------|
D|-------------------------------------|-------------------------------------|
A|-/9-9-9-9-9-9-9--9-9-9-9-h10---10-h9-|-/9-9-9-9-9-9-9--9-9-9-9-h10---10-h9-|
D|--0-0-0-0-0-0-0--0-0-0---------------|--0-0-0-0-0-0-0--0-0-0---------------|

e|-------------------------|
B|-------------------------|
G|-------0-------0---------|
D|----12------12-------0---|
A|-------------------2---2-|
D|-10------9-------3-------|


[Chorus] (x2)

e|-----------------------------------------|-----------------------------------------|
B|-----------------------------------------|-----------------------------------------|
G|-----------------------------------------|-----------------------------------------|
D|-0-0-x-0-0--0-0--0-0--0-0--6-6-6-6-5-5-3-|-0-0-x-0-0--0-0--0-0--0-0--6-6-6-6-5-5-3-|
A|-0-0-x-0-0--0-0--0-0--0-0--6-6-6-6-5-5-3-|-0-0-x-0-0--0-0--0-0--0-0--6-6-6-6-5-5-3-|
D|-0-0-x-0-0--0-0--0-0--0-0--6-6-6-6-5-5-3-|-0-0-x-0-0--0-0--0-0--0-0--6-6-6-6-5-5-3-|

e|----------------------------------------------|-|
B|----------------------------------------------|-|
G|----------------------------------------------|-|
D|-3-0--0--3-0--0-3-0--3-0--0-0-0-6-6-6-6-5-5-3-|-|
A|-3-0--0--3-0--0-3-0--3-0--0-0-0-6-6-6-6-5-5-3-|-|
D|-3-0--0--3-0--0-3-0--3-0--0-0-0-6-6-6-6-5-5-3-|-|



************************************

| h  Hammer-on
| /  Slide up
| x  Dead note

************************************
Suggest correction
Give kudos to tab author, rate the tab!
1 2 3 4 5
comments
print report bad tab
guest
You may want to rate the tab now too:
select rating
Wanna post a correction for this tab? Suggest correction