Oops, an error
Loading. Please wait.

Well Well Welwyn Tab

10 views 1 this week
no commentswrite comment
1 2 3 4 5
3 more votes to show rating
add to favorites
launch autoscroll
font size
0
reset
how to read this tab
guitar tuner
Autoscroll
slow
fast
+/-
esc
set tempo
stop
Help us to improve Ultimate-Guitar.com Take our survey!
×
Author
Difficulty
Tuning
intermediate
D A D G B E
About this tab version
Original composition for ol' mate Dorbi. Was this info helpful? Yes No
[Intro]

e|----------------------------------|-----------------------------------------------------|
B|----------------------------------|-----------------------------------------------------|
G|----------------------------------|-10-h9-h7p-0-h5-h7-7-7-----10-h9-h7p-0-h5-h7-/9-\7-7-|
D|-3-h5-5-5-5-3-3-3-3-4-4-4-4-3-3-0-|-----------------------3-0---------------------------|
A|-3-h5-5-5-5-3-3-3-3-4-4-4-4-3-3-0-|-----------------------3-0---------------------------| 
D|-3-h5-5-5-5-3-3-3-3-4-4-4-4-3-3-0-|-----------------------3-0---------------------------|  (X2)

e|----------------------------------|-----------------------------------------------------|
B|----------------------------------|-----------------------------------------------------|
G|----------------------------------|-10-h9-h7p-0-h5-h7-------10-h9-h7p-0-h5-h7-----------|
D|-3-h5-5-5-5-3-3-3-3-4-4-4-4-3-3-0-|-----------------------0-----------------------------|
A|-3-h5-5-5-5-3-3-3-3-4-4-4-4-3-3-0-|-----------------------0-----------------------------| 
D|-3-h5-5-5-5-3-3-3-3-4-4-4-4-3-3-0-|-----------------------0-----------------------------|  


[Intro 2]

e|-------0-0-0-0-0--------0-0-0-0-0--|-----------------------------------------------------|
B|--------6-6-6-6----------6-6-6-6---|-----------------------------------------------------|
G|----------------7----------------7-|-----------------------------------------------------|
D|-0-0-0------------0-0-0------------|-8-8-8-10-10-10-5-5-5-8-8-8--------------------------|
A|-0-0-0------------0-0-0------------|-8-8-8----------5-5-5--------------------------------|
D|-0-0-0------------0-0-0------------|-8-8-8----------5-5-5--------------------------------|  (x2)

e|-------0-0-0-0-0--------0-0-0-0-0--|-|
B|--------6-6-6-6----------6-6-6-6---|-|
G|----------------7----------------7-|-|
D|-0-0-0------------0-0-0------------|-|
A|-0-0-0------------0-0-0------------|-|
D|-0-0-0------------0-0-0------------|-|

e|----------------------------------------------------------------------------------------|-|
B|----------------------------------------------------------------------------------------|-|
G|----------------------------------------------------------------------------/15-15-15---|-|
D|-8-8-8-10-10-10-5-5-5-8-8-8-8-8-8-10-10-10-5-5-5-8-8-8-8-8-8-10-10-10-5-5-5-----------0-|-|
A|-8-8-8----------5-5-5-------8-8-8----------5-5-5-------8-8-8----------5-5-5-/13-13-13-0-|-|
D|-8-8-8----------5-5-5-------8-8-8----------5-5-5-------8-8-8----------5-5-5-----------0-|-|

[Verse]

e|----------------------------------------------------------------------|-|
B|----------------------------------------------------------------------|-|
G|-------------------------17-17-17-------------------------/15-15-15---|-|
D|-8-8-8-8-8-8-8-8-8-8-8-8----------5-5-5-5-5-5-5-5-5-5-5-5-----------0-|-|
A|-8-8-8-8-8-8-8-8-8-8-8-8-15-15-15-5-5-5-5-5-5-5-5-5-5-5-5-/13-13-13-0-|-|
D|-8-8-8-8-8-8-8-8-8-8-8-8----------5-5-5-5-5-5-5-5-5-5-5-5-----------0-|-|

e|---------------------------------------------------------------------------|-|
B|---------------------------------------------------------------------------|-|
G|-15-15-15--14-14-14--15-15-15--14-14-14--15-15-15--14-14-14--14-14---------|-|
D|-0--0--0---0--0--0---0--0--0---0--0--0---0--0--0---0--0--0---0--0----------|-|
A|-0--0--0---0--0--0---0--0--0---0--0--0---0--0--0---0--0--0---0--0-7-h8-h10-|-|
D|-0--0--0---0--0--0---0--0--0---0--0--0---0--0--0---0--0--0---0--0----------|-|

e|--------------------------------------------------------------------------|-|
B|--------------------------------------------------------------------------|-|
G|-------------------------17-17-17---------------/15-15-15-15-15-15-15-15\-|-|
D|-8-8-8-8-8-8-8-8-8-8-8-8----------5-5-5-5-5-5-5---------------------------|-|
A|-8-8-8-8-8-8-8-8-8-8-8-8-15-15-15-5-5-5-5-5-5-5-/13-13-13-13-13-13-13-13\-|-|
D|-8-8-8-8-8-8-8-8-8-8-8-8----------5-5-5-5-5-5-5---------------------------|-|


[Chorus]

e|--------------------------------------------------------|-|
B|--------------------------------------------------------|-|
G|--------------------------------------------------------|-|
D|-0-0-0--0-0-0--0-0-0--0-0-0--0-0-0--0-0-6-0-5-0-3-5-3-0-|-|
A|-0-0-0--0-0-0--0-0-0--0-0-0--0-0-0--0-0-6-0-5-0-3-5-3-0-|-|
D|-0-0-0--0-0-0--0-0-0--0-0-0--0-0-0--0-0-6-0-5-0-3-5-3-0-|-|  (x2)

e|--------------------------------------------------------|-|
B|--------------------------------------------------------|-|
G|--------------------------------------------------------|-|
D|----------------------------------------6-0-5-0-3-5-3-0-|-|
A|----------------------------------------6-0-5-0-3-5-3-0-|-|
D|-0-0-0--0-0-0--0-0-0--0-0-0--0-0-0--0-0-6-0-5-0-3-5-3-0-|-|

e|--------------------------------------------------------|-|
B|--------------------------------------------------------|-|
G|--------------------------------------------------------|-|
D|-0-0-0--0-0-0--0-0-0--0-0-0--0-0-0--0-0-6-0-5-0-3-5-3-0-|-|
A|-0-0-0--0-0-0--0-0-0--0-0-0--0-0-0--0-0-6-0-5-0-3-5-3-0-|-|
D|-0-0-0--0-0-0--0-0-0--0-0-0--0-0-0--0-0-6-0-5-0-3-5-3-0-|-|
  
[Breakdown]

e|-----0----------------------------------------------0--------------------------------------|-|
B|-----6----------------------------------------------6--------------------------------------|-|
G|-----7------10-10-10-9--9--9-10-10-10-12-12-12------7--------10-10-10-9--9--9-10-10-10-12\-|-|
D|-0-----0--0-------------------------------------0-----0--0---------------------------------|-|
A|-0-----0--0-8--8--8--7--7--7-8--8--8--10-10-10--0-----0--0---8--8--8--7--7--7-8--8--8--10\-|-|
D|-0-----0--0-------------------------------------0-----0--0---------------------------------|-|
 
[Outro]

e|-----------------------------------------------------------------------------------------------|-|
B|-----------------------------------------------------------------------------------------------|-|
G|-----------------------------------------------------------------------------------------------|-|
D|-0-0--x-x-x-0-0--x-x-x-0-0--x-x-x-0-0-0--6-6-6-3-3--x-x-x--3-3--x-x-x--3-3--x-x-x--5-5-5-6-6-6-|-|
A|-0-0--x-x-x-0-0--x-x-x-0-0--x-x-x-0-0-0--6-6-6-3-3--x-x-x--3-3--x-x-x--3-3--x-x-x--5-5-5-6-6-6-|-|
D|-0-0--x-x-x-0-0--x-x-x-0-0--x-x-x-0-0-0--6-6-6-3-3--x-x-x--3-3--x-x-x--3-3--x-x-x--5-5-5-6-6-6-|-|  (x2)

e|-----------------------------------------------------------------------------------------------|-|
B|-----------------------------------------------------------------------------------------------|-|
G|-2-2--x-x-x-2-2--x-x-x-2-2--x-x-x-2-2-2--8-8-8-5-5--x-x-x--5-5--x-x-x--5-5--5-5-5--7-7-7-8-8-8-|-|
D|-0-0--x-x-x-0-0--x-x-x-0-0--x-x-x-0-0-0--6-6-6-3-3--x-x-x--3-3--x-x-x--3-3--3-3-3--5-5-5-6-6-6-|-|
A|-0-0--x-x-x-0-0--x-x-x-0-0--x-x-x-0-0-0--6-6-6-3-3--x-x-x--3-3--x-x-x--3-3--3-3-3--5-5-5-6-6-6-|-|
D|-0-0--x-x-x-0-0--x-x-x-0-0--x-x-x-0-0-0--6-6-6-3-3--x-x-x--3-3--x-x-x--3-3--3-3-3--5-5-5-6-6-6-|-|  (x2)

************************************


| h   Hammer-on
| /   Slide up
| \   Slide down

************************************
Suggest correction
Give kudos to tab author, rate the tab!
1 2 3 4 5
comments
print report bad tab
guest
You may want to rate the tab now too:
select rating
Wanna post a correction for this tab? Suggest correction