Oops, an error
Loading. Please wait.
9 views 1 this week
no commentswrite comment
1 2 3 4 5
3 more votes to show rating
add to favorites
launch autoscroll
font size
0
reset
how to read this tab
guitar tuner
×
Best way to learn
"La Carta"
Autoscroll
slow
fast
+/-
esc
set tempo
stop
Bueno aqui les pongo una rola de este grupo que esta dos tres

Notas: G C D

e--------------------------------------------
B---12-12-12-10-8-5---13-12-10-7---7-5-3-5-3-
G--------------------------------------------

e----------------------------------------------
B---12-12-12-10-8-5---13-12-10-7---7-8-10-10-8-
G----------------------------------------------

e--------------------------------
B---12-12-12-10-8-15-15-15-15-13-
G--------------------------------

e---------------------------------
B---13/17-15-13-13/12-12/10-10/12-
G---------------------------------

e----------------------------------------
B---12-10-8-5---13-12-10-7---7-8-10-10-8-
G----------------------------------------

G                 C
Hay un gran corazon
                  D
en esta carta de amor
                  G
que me mandaste ayer
G                     C
dices que quieres volver
                D
ya no quiero saber
         G
nada de ti
G                 D
yo se que todo Fallo
C                 G
Tengaño tu otro amor
G                     C
Como lo hiciste conmigo
          D        G
a ti tambien te paso
G                     C
Yose que el tiempo paso
               D
y que todo borro
                 G
pero yo no olvidare
G                     C
por que si algo aprendi

                  D
es no volver a creer
         G
nunca en ti
G                 D
yo se que todo Fallo
C                 G
Tengaño tu otro amor
G                     C
Como lo hiciste conmigo
          D        G
a ti tambien te paso


e----------------------------------
B---12-12-12-10-8-5---5-7-8-7-5-3--
G----------------------------------

e-----------------------
B---3-5-7-5-3-----------
G-------------5-5-4-2-4-

e----------------------------------------------
B---12-12-12-10-8-5---13-12-10-7---7-8-10-10-8-
G----------------------------------------------

e--------------------------------
B---12-12-12-10-8-15-15-15-15-13-
G--------------------------------

e---------------------------------
B---13/17-15-13-13/12-12/10-10/12-
G---------------------------------

e----------------------------------------
B---12-10-8-5---13-12-10-7---7-8-10-10-8-
G----------------------------------------

Serepite toda la letra y termina con un adorno algo así
En:
 D
e---2/1/0-2-
B---3/2/1-3-
G-----------

sale estoda la rola solo hay que darle sus tiempos

que viva el Rock Urbano Yeah!
Suggest correction
Give kudos to tab author, rate the tab!
1 2 3 4 5
comments
print report bad tab
guest
You may want to rate the tab now too:
select rating
Wanna post a correction for this tab? Suggest correction