Oops, an error
Loading. Please wait.

999F Tab

70 views 6 this week
no commentswrite comment
1 2 3 4 5
2 more votes to show rating
add to favorites
launch autoscroll
font size
0
reset
how to read this tab
guitar tuner
Autoscroll
slow
fast
+/-
esc
set tempo
stop
Help us to improve Ultimate-Guitar.com Take our survey!
×
Author
Difficulty
Capo
intermediate
4th fret
Song: 99.9F
Artist: Suzanne Vega
Composer: Suzanne Vega
Album: 99.9F
Tabbed by DJ
24th Oct 2015

This is an arrangement aimed as an acoustic guitar
accompaniment for a solo singer.

CAPO: 4th fret (Sounds in the key of F#)

Chord names and fret positions are relative to the capo:
D5     = xx023x    F     = xx3211     G7sus2  = 3xx2x1
C6add2 = x30230    FM7   = xx3210     G6sus2  = 3xx2x0
Bm11   = x20230    F6    = xx3231     Gsus2   = 3xx23x
BbM7-5 = x10230    FM7-5 = xx3200     Gsus2/4 = 3xx21x 
D5/A   = x0023x                       Gadd9   = 3xx20x

For the main riff I would use the middle and little fingers
to keep the shape on the 2nd & 3rd strings, and use the ring
finger to play the C bass, and the index to play the B and
Bb bass notes.

Here's two other lists of alternatives that could work for
the main chord progression:
D     = x507xx     D5       = xx0235
Csus2 = x305xx     C6sus2   = x30035
Bm    = x204xx     Bm7#5    = x20035
Bb    = x103xx     BbM7add6 = x10035
D5/A  = x002xx     D5/A     = x00235

***************************************************************

[Intro]
e |------------------|------------------|
B |------------------|------------------|
G |------------------|------------------|
D |--0--0---------0--|--0--0---------0--|
A |--------0-h3------|--------0-h3-3----|
E |------------------|------------------|
     D5 D5
e |------------------|------------------|
B |--3--3------------|------------------|
G |--2--2------------|------------------|
D |--0--0---------0--|--0--0---------0--|
A |--------0-h3------|--------0-h3-3----|
E |------------------|------------------|


[Verse 1]
   D5             C6sus2
Ninety nine point nine Fahrenheit degrees, 
 Bm11            BbM7-5             D5/A
Stable now, with rising possibili - ties,
D5               C6sus2
     It could be normal, but it isn't quite,
Bm11               BbM7-5                 D5/A
     Could make you want to stay awake at night!


[Chorus]
D5            C6sus2        Bm11          BbM7-5         D5/A
You ...seem to me ...like a man ...on the verge of burn - ing,

   Nine-ty nine point nine Fah -ren-heit de - grees!
e |------------------|-----------------------------|
B |------------------|-----------------------------|
G |------------------|-----------------------------|
D |--0--0---------0--|--0---0------------------0---|
A |--------0-h3------|-----------0--h3---3---------|
E |------------------|-----------------------------|
     D5 D5
e |------------------|------------------|
B |--3--3------------|------------------|
G |--2--2------------|------------------|
D |--0--0---------0--|--0--0---------0--|
A |--------0-h3------|--------0-h3-3----|
E |------------------|------------------|


[Verse 2]
D5           C6sus2           Bm11        BbM7-5  D5/A
   Pale as a candle, and your face is hot,
D5           C6sus2           Bm11                 BbM7-5 D5/A
   And if I touch you, I might get what you've got!


[Chorus]
D5            C6sus2        Bm11          BbM7-5          D5/A
You ...seem to me ...like a man ...on the verge of burn - ing,
  D5             C6sus2                   Bm11 Bm11 BbM7-5 D5/A
Ninety nine point nine Fahrenheit degrees!  ^   ^


[Bridge 1]
     F   FM7 F6     FM7 FM7-5    F   FM7         FM7-5 FM7 
e |--1----0-----|-------------|--1----0-----|-------------|
B |----------3--|----1--0-----|-------------|-------0--1--|
G |--2----2--2--|----2--2--2--|--2----2--2--|----2--2--2--|
D |--3----3--3--|----3--3-----|--3----3-----|----3--3--3--|
A |-------------|-------------|-------------|-------------|
E |-------------|-------------|-------------|-------------|

      F     FM7     F6         FM7  FM7-5
    Some - thing ...cool     ...a - gainst ...the...
e |---1------0-----------|-------------------------|
B |------------------3---|------1-----0------------|
G |---2------2-------2---|------2-----2--------2---|
D |---3------3-------3---|------3-----3------------|
A |----------------------|-------------------------|
E |----------------------|-------------------------|

      F     FM7                     FM7-5   FM7
  ...skin ...is ...what   ...you ...could ...be,
e |---1------0-----------|-------------------------|
B |----------------------|------------0------1-----|
G |---2------2-------2---|-----2------2------2-----|
D |---3------3-----------|-----3------3------3-----|
A |----------------------|-------------------------|
E |----------------------|-------------------------|

   G7sus2  G6sus2  Gsus2   Gsus2/4  Gadd9
    Some - thing ...cool     ...a - gainst ...the...
e |---1------0-----------|-------------------------|
B |------------------3---|------1-----0------------|
G |---2------2-------2---|------2-----2--------2---|
D |----------------------|-------------------------|
A |----------------------|-------------------------|
E |---3------3-------3---|------3-----3------------|

   G7sus2  G6sus2           Gadd9          Gsus2/4
  ...skin ...is ...what   ...you ...could ...be ...
e |---1------0-----------|-------------------------|
B |----------------------|------------0------1-----|
G |---2------2-------2---|-----2------2------2-----|
D |----------------------|-------------------------|
A |----------------------|-------------------------|
E |---3------3-----------|-----3------3------3-----|

   G7sus2  G6sus2  Gsus2   Gsus2/4 Gadd9
  ...need - ing!
e |---1------0-----------|-------------------------|
B |------------------3---|-----1------0------------|
G |---2------2-------2---|-----2------2------2-----|
D |----------------------|-------------------------|
A |----------------------|-------------------------|
E |---3------3-----------|-----3------3------------|


[Link]
  D5  D5                                     D5 D5
Nine -ty nine point nine Fahrenheit degrees!

    D5           C6sus2       Bm11        BbM7-5    D5/A
||: /  /  /  / | /  /  /  / | /  /  /  / | /  /  /   /  :||[x2]


[Chorus]
D5            C6sus2        Bm11          BbM7-5         D5/A
You ...seem to me ...like a man ...on the verge of burn - ing,
  D5             C6sus2                    Bm11 Bm11  BbM7-5 D5/A
Ninety nine point nine Fahrenheit degrees!


[Bridge 2]
     F   FM7 F6     FM7 FM7-5    F   FM7         FM7-5 FM7 
e |--1----0-----|-------------|--1----0-----|-------------|
B |----------3--|----1--0-----|-------------|-------0--1--|
G |--2----2--2--|----2--2--2--|--2----2--2--|----2--2--2--|
D |--3----3--3--|----3--3-----|--3----3-----|----3--3--3--|
A |-------------|-------------|-------------|-------------|
E |-------------|-------------|-------------|-------------|

      F     FM7     F6         FM7  FM7-5
    Some - thing ...cool     ...a - gainst ...the...
e |---1------0-----------|-------------------------|
B |------------------3---|------1-----0------------|
G |---2------2-------2---|------2-----2--------2---|
D |---3------3-------3---|------3-----3------------|
A |----------------------|-------------------------|
E |----------------------|-------------------------|

      F     FM7                     FM7-5   FM7
  ...skin ...is ...what   ...you ...could ...be!
e |---1------0-----------|-------------------------|
B |----------------------|------------0------1-----|
G |---2------2-------2---|-----2------2------2-----|
D |---3------3-----------|-----3------3------3-----|
A |----------------------|-------------------------|
E |----------------------|-------------------------|

   G7sus2  G6sus2  Gsus2   Gsus2/4  Gadd9
    Some - thing ...cool     ...a - gainst ...the...
e |---1------0-----------|-------------------------|
B |------------------3---|------1-----0------------|
G |---2------2-------2---|------2-----2--------2---|
D |----------------------|-------------------------|
A |----------------------|-------------------------|
E |---3------3-------3---|------3-----3------------|

   G7sus2  G6sus2           Gadd9          Gsus2/4
  ...skin ...is ...what   ...you ...could ...be ...
e |---1------0-----------|-------------------------|
B |----------------------|------------0------1-----|
G |---2------2-------2---|-----2------2------2-----|
D |----------------------|-------------------------|
A |----------------------|-------------------------|
E |---3------3-----------|-----3------3------3-----|

   G7sus2  G6sus2  Gsus2   Gsus2/4 Gadd9
  ...need - ing!
e |---1------0-----------|-------------------------|
B |------------------3---|-----1------0------------|
G |---2------2-------2---|-----2------2------2-----|
D |----------------------|-------------------------|
A |----------------------|-------------------------|
E |---3------3-------3---|-----3------3------------|


[Coda]
    D5  D5
   Nine-ty nine point nine Fah -ren-heit de - grees!
e |------------------|-----------------------------|
B |--5--5------------|-----------------------------|
G |--2--2------------|-----------------------------|
D |--0--0---------0--|--0---0------------------0---|
A |--------0-h3------|-----------0--h3---3---------|
E |------------------|-----------------------------|
     D5 D5
e |------------------|------------------|
B |--3--3------------|------------------|
G |--2--2------------|------------------|
D |--0--0---------0--|--0--0---------0--|
A |--------0-h3------|--------0-h3-3----|
E |------------------|------------------|
     D5 D5
e |------------------|------------------|
B |--3--3------------|------------------|
G |--2--2------------|------------------|
D |--0--0---------0--|--0--0---------0--|
A |--------0-h3------|--------0-h3-3----|
E |------------------|------------------|

    D5  D5
   Nine-ty nine point nine Fah -ren-heit de - grees!
e |------------------|-----------------------------|
B |--3--3------------|-----------------------------|
G |--2--2------------|-----------------------------|
D |--0--0---------0--|--0---0------------------0---|
A |--------0-h3------|-----------0--h3---3---------|
E |------------------|-----------------------------|

    D5           C6sus2       Bm11        BbM7-5    D5/A
||: /  /  /  / | /  /  /  / | /  /  /  / |  /  /  /  / :||[Repeat]
Suggest correction
Give kudos to tab author, rate the tab!
1 2 3 4 5
comments
print report bad tab
guest
You may want to rate the tab now too:
select rating
Wanna post a correction for this tab? Suggest correction