Oops, an error
Loading. Please wait.

Big Space Tab

567 views 1 this week
no commentswrite comment
1 2 3 4 5
please rate
add to favorites
launch autoscroll
font size
0
reset
how to read this tab
guitar tuner
Autoscroll
slow
fast
+/-
esc
set tempo
stop
Help us to improve Ultimate-Guitar.com Take our survey!
×
Author
Difficulty
Capo
novice
2nd fret
-----------------------------------------------------------------------------
                             BIG SPACE - Suzanne Vega
-----------------------------------------------------------------------------

Days of Open Hand (1990)
The acoustic part has some chord extensions that are a bit hard to write out. You should 
able to figure them out by listening closely to the song.
Guitars 1 and 2 capo 2

Intro (guitar):
|Bm |G |Em |G |
|Bm |G |Em |  |
|G  |  |


Intro (synth arr. for guitar):

e|--------------------------------------------------7----------------|
B|--9--7--9-------------------------9--7--9--------------------------|
G|----------9--8--9-6-----------------------9--8--9------------------|
D|-------------------------------------------------------------------|
A|-------------------------------------------------------------------|
E|--4-------5-------2-------5-------4-------5-------2--------2-------|

e|-9----|
B|------|
G|------|
D|------|
A|------|
E|-5----|


Pre Verse
from now on, guitars on high staff/synth on low staff
(guitar 2 in parentheses)

e|-(0)-------(0)---------------(0)-------(0)--------------|
B|------(3)------(0)------(0)-------(3)------(0)------(0)-|
G|--2----0----2-------(2)-------2----0----2-------(2)-----|
D|--2--2-0--0-2---2----0---2----2--2-0--0-2---2----0---2--|
A|--0--0-x--x-0---2--2-0-0-2----0--0-x--x-0---2--2-0-0-2--|
E|-------3--3-----0--0-----0---------3--3-----0--0-----0--|

e|--------------------------------------------------------|
B|--------------------------------------------------------|
G|--------------------------------------------------------|
D|--------------------------------------------------------|
A|--2---------------------------2-------------------------|
E|----------------2---------------------------2-----------|

Verse (2x)
e|-(x)--(x)--(x)-(x)--(x)--(x)--(x)--(x)--(x)-(x)--(x)--(x)-|
B|-(5)--(5)--(5)-(3)--(3)--(3)--(5)--(5)--(5)-(3)--(3)--(3)-|
G|--2----2----2---0----0----0----2----2----2---0----0----0--|
D|--2--2-2--2-2---0--0-0--0-0----2--2-2--2-2---0--0-0--0-0--|
A|--0--0-0--0-0---x--x-x--x-x----0--0-0--0-0---x--x-x--x-x--|
E|----------------3--3-3--3-3------------------3--3-3--3-3--|

e|--5-------------3--------------5-------------3-----------|
B|--5-------------3--------------5-------------3-----------|
G|---------------------------------------------------------|
D|---------------------------------------------------------|
A|---------------------------------------------------------|
E|--5-------------3--------------5-------------3-----------|

Pre verse
Verse

Chorus (Between the pen and the paperwork...):
|Bm |G |Em |G |
|Bm |G |Em |G |
|Bm |G |Em |G |(synth line)
|Bm |G |Em |G |(synth line)
|Bm |G |Em |  |(synth line part 2)
|G  |  |

Pre verse
Verse
Chorus
Pre verse

Bridge (All feeling...):
|Bm |C  |Am |  |
|C  |Em |Am |  |
|Bm |C  |Am |  |
|C  |Em |D  |Am|

Chorus
Pre verse
Suggest correction
Give kudos to tab author, rate the tab!
1 2 3 4 5
comments
print report bad tab
guest
You may want to rate the tab now too:
select rating
Please do not post tabs as comments. Select "correction" instead!